Oops, an error
Loading. Please wait.
We have an official Miracle tab made by UG professional guitarists. Check out the tab »
×
430 views 6 this week
no commentswrite comment
1 2 3 4 5
3 more votes to show rating
add to favorites
×
Save as Personal and add changes to this tab that will be seen only by you. Learn more ›
×
You can save this tab as Personal to edit and correct it or add notes. All changes will be seen only by you. Learn more »
launch autoscroll
font size
0
reset
guitar tuner
edit
Autoscroll
slow
fast
+/-
esc
set tempo
stop
-------------------------------------------------------------------------------
			     MIRACLE OUTRO  Paramore
-------------------------------------------------------------------------------

Tabbed By : Alex Diaz 
e-mail: AlexD97@live.se

Tuning: Drop Db

Very, very awesome song... or outro. 

This was rather sloppy. Sorry for that, but it was in fact very annoying and
frustrating to tab this song. It's not hard or something, just frustrating
to tab, because there are variations everywhere...

Gb|--------------------------------------------------------------------------|
Db|--------------------------------------------------------------------------|
Ab|-----------------------------------------------------7-6-4-3-2------------|
Db|-7~--7-7/--0~--7~----5/9--0~--6-7~-7~-0~--9~/--7~--0~----------7~-7\-0~-9~|

Gb|---------------------------------------------------|
Db|---------------------------------------------------|
Ab|----------------------7-6-4-3-2--------------------|
Db|7~--7--7/11-11~--11\5~-----------7~---5/0~--7~--9~-|

Chorus: I begged you for it...
Gb|-------------------------------------------------------------------------|
Db|-------------------------------------------------------------------------|
Ab|-------------------------------------------------------------------------|
Db|-77-7-7-7-7-7-7-7-7-7-7-7-7-7-7-7--11-11-11-11-11-11-11-11-11-11-11-11-11|

Gb|----------------------------------------------------------------|
Db|----------------------------------------------------------------|
Ab|11-10-9-7-6-----------------------------------------------------|
Db|-------------7-7-7-7-7-7-7-7-7-7-7-7-7-7-7-7-7/11-11-11-11-11-11|

Gb|------------------------------------------------|
Db|------------------------------------------------|
Ab|------------------------------------------------|
Db|-7-7-7-7-7-7-7-7-7-7-7-7-7-7-7-11-11-11-11-11-11|

this one 3x
Gb|---------------------------------------------------------------------------|
Db|---------------------------------------------------------------------------|
Ab|11-10-9-7-6----------------------------------------------------------------|
Db|------------7-7-7-7-7-7-7-7-7-7-7-7-7-7-7-7-7-11-11-11-11-11-11-11-11-11-11|

Gb|-----------|
Db|-----------|
Ab|11-10-9-7-6|
Db|-----------|

Breakdown
Gb|--------------------------------|
Db|--------------------------------|
Ab|--------------------------------|
Db|7-7-7-7-7-7-7-7-2-2-2-2-4-4-4-4-|4x

Outro
Gb|--------------------------------------------|
Db|--------------------------------------------|
Ab|11-10-9-7-6---------------------------------|
Db|------------7-7-7-7-7-7-7-7--2-2-2-2-4-4-4-4|

Gb|---------------------------------------------|
Db|---------------------------------------------|
Ab|---------------5/9-11-10-9-7-6---------------|
Db|7-7-7-7-7-7-7-7---------------2-2-2-2-4-4-4-4|

Repeat those two. 

Gb|---|
Db|---|
Ab|---|
Db|-7~| <-- bend 

I don't think that this is a "full" tab, nor fully correct.
But it shows you what there is in the song. 

            
            
Suggest correction
Creating personal tab
Creating personal tab
You can edit any tab online and save it as your Personal.

You can edit, replace or remove any tab part or add personal notes – all changes will be seen only by you.

Personal tabs can be accessed anytime from any device, even offline.
Learn more »
Give kudos to tab author, rate the tab!
1 2 3 4 5
comments
print report bad tab
guest
You may want to rate the tab now too:
select rating
Wanna post a correction for this tab? Suggest correction