Oops, an error
Loading. Please wait.

Misery Business Bass Tab

version 1
version 1

Whole song

94,036 views 45 this week
4 commentsread comments
1 2 3 4 5
x 14
add to favorites
launch autoscroll
font size
0
reset
guitar tuner
Autoscroll
slow
fast
+/-
esc
set tempo
stop
Help us to improve Ultimate-Guitar.com Take our survey!
×
Difficulty
novice
Intro/Verse

G|-------------------------------------------|
D|-------------------------------------------|  x6
A|-------2h4-2h4-------------2h4-2h4---------|
E|--44-4---------22-222-44-4---------00-000--|

alternate verse (played only twice in the song)
G|-------------------------------------------|
D|-------------------------------------------|
A|-------2h4-2h4--------2h4-2h4--------------|
E|--44-4---------22-222---------0-0-0-0------|

Pre-chorus

G|------------------------------------|
D|------------------------------------|  
A|------------------------------------|
E|--44444444-22222--------------------|

Chorus 

G|--------------------------------------|
D|--------------------------------------|   x2
A|--------------------------------------|
E|--00000000-77777777-22222222-66667777-|


Post-chorus

G|---------------------------------------|
D|---------------------------------------|   x2
A|---------------------------------------|
E|-0-0-0-0-0-0-0-7777-2-2-2-2-2-2-2-7777-|

alternate-versex1
Versex4
Pre-chorus
Chorusx2
post-chorusx2

Bridge

G|--------------------|
D|--------------------|   x3
A|--------------------|
E|0--7--2--6-7--------| wait about 7 seconds

Chorusx4
rest
chorusx2
post-chorusx2
versex1
alternate-versex1






Suggest correction
comments
print report bad tab
4 comments total. Showing first comments.
0 reply
omahal 10 Jun 04, 2007 01:25 AM

isnt this supposed to be in drop d?

0 reply
RaiLeff 12,922 Jun 08, 2007 07:58 PM

This tabs not in standard,
its in Drop C#

0 reply
feeney 112 Jul 01, 2007 02:26 PM

if you drop c# the it sounds fine lol

guest
You may want to rate the tab now too:
select rating
Wanna post a correction for this tab? Suggest correction