Oops, an error
Loading. Please wait.

Misery Business Tab

353,352 views 228 this week
18 commentsread comments
1 2 3 4 5
worth learning
x 29
add to favorites
launch autoscroll
font size
0
reset
how to read this tab
guitar tuner
Autoscroll
slow
fast
+/-
esc
set tempo
stop
Help us to improve Ultimate-Guitar.com Take our survey!
×
Tuning
D A D G B E
[Intro]

E|----------------------------------------------------------------|
B|----------------------------------------------------------------|
G|----------------------------------------------------------------|
D|---4-4--4-----------2-2--2-2-2----4-4--4-----------0-0-0-0-0-0--|
A|---4-4--4--2-4-2-4--2-2--2-2-2----4-4--4--2-4-2-4--0-0-0-0-0-0--|
D|---4-4--4-----------2-2--2-2-2----4-4--4-----------0-0-0-0-0-0--|

E|----------------------------------------------------------------|
B|----------------------------------------------------------------|
G|----------------------------------------------------------------|
D|---4-4--4-----------2-2--2-2-2----4-4--4-------------------2-4--|
A|---4-4--4--2-4-2-4--2-2--2-2-2----4-4--4--2-4-2-4------2-4------|
D|---4-4--4-----------2-2--2-2-2----4-4--4-----------2-4----------|


[Verse]

E|-------------------------------------------------------------------|
B|-------------------------------------------------------------------|
G|-------------------------------------------------------------------|
D|---4-4-4-4-4-4-4-4-2-2-2-2-2-2-2-2-4-4-4-4-4-4-4-4-0-0-0-0-0-0-0-0-|
A|---4-4-4-4-4-4-4-4-2-2-2-2-2-2-2-2-4-4-4-4-4-4-4-4-0-0-0-0-0-0-0-0-|
D|---4-4-4-4-4-4-4-4-2-2-2-2-2-2-2-2-4-4-4-4-4-4-4-4-0-0-0-0-0-0-0-0-|
   (PM)------------------------------------------------------------(PM)
                                                                         2X
E|-------------------------------------------------------------------|
B|-------------------------------------------------------------------|
G|-------------------------------------------------------------------|
D|---4-4-4-4-4-4-4-4-2-2-2-2-2-2-2-2-4-4-4-4-4-4-4-4-7-7-7-7-6-6-6-6-|
A|---4-4-4-4-4-4-4-4-2-2-2-2-2-2-2-2-4-4-4-4-4-4-4-4-7-7-7-7-6-6-6-6-|
D|---4-4-4-4-4-4-4-4-2-2-2-2-2-2-2-2-4-4-4-4-4-4-4-4-7-7-7-7-6-6-6-6-|
   (PM)------------------------------------------------------------(PM)

E|-------------------------------------------------------------------|
B|----5-x-5-x-5-8-5-8------------------------------------------------|
G|-------------------------------------------------------------------|
D|-------------------------------------------------------------------|  8X
A|-------------------------------------------------------------------|
D|-------------------------------------------------------------------|


[Pre-Chorus]

E|-------------------------------------------------------------------|
B|-------------------------------------------------------------------|
G|-------------------------------------------------------------------|
D|----4-4-4-4-4-4-4-4---2-2-2-2-2------------------------------------| 
A|----4-4-4-4-4-4-4-4---2-2-2-2-2------------------------------------|
D|----4-4-4-4-4-4-4-4---2-2-2-2-2------------------------------------|


[Chorus]

E|----------------------------------------------------------------------|
B|7-7-7-7-7-7-7-7-------------------------------------------------------|
G|6-6-6-6-6-6-6-6---------------------4-4-4-4-4-4-4-4---7-7-7-7-6-6-6-6-|
D|4-4-4-4-4-4-4-4---7-7-7-7-7-7-7-7---2-2-2-2-2-2-2-2---4-4-4-4-4-4-4-4-|  2X
A|5-5-5-5-5-5-5-5---7-7-7-7-7-7-7-7---2-2-2-2-2-2-2-2---4-4-4-4-4-4-4-4-|
D|------------------7-7-7-7-7-7-7-7---2-2-2-2-2-2-2-2---4-4-4-4-4-4-4-4-|

E|-------------------------------------------------------------------|
B|-------------------------------------------------------------------|
G|-------------------------------------------------------------------|
D|-0-x-0-x-0-x-0-x-0-x-0-x-0h4-4--2-x-2-x-2-x-2-x-2-x-2-x-2h4-4------|  
A|-0-x-0-x-0-x-0-x-0-x-0-x-0h4-4--2-x-2-x-2-x-2-x-2-x-2-x-2h4-4------|
D|-0-x-0-x-0-x-0-x-0-x-0-x-0h4-4--2-x-2-x-2-x-2-x-2-x-2-x-2h4-4------|
  does it feel so good...

E|--------------------------------------------------------------------|
B|--------------------------------------------------------------------|
G|--------------------------------------------------------------------|
D|-0-x-0-x-0-x-0-x-0-x-0-x-0h4-4--2-x-2-x-2-x-2-x--4-4-4-4-4----------|  
A|-0-x-0-x-0-x-0-x-0-x-0-x-0h4-4--2-x-2-x-2-x-2-x--4-4-4-4-4----------|
D|-0-x-0-x-0-x-0-x-0-x-0-x-0h4-4--2-x-2-x-2-x-2-x--4-4-4-4-4----------|

E|-------------------------------------------------------------------|
B|-------------------------------------------------------------------|
G|-------------------------------------------------------------------|
D|---4-4--4-----------2-2--2-2-2----4-4--4-----------7-7-7-7---------|
A|---4-4--4--2-4-2-4--2-2--2-2-2----4-4--4--2-4-2-4--7-7-7-7---------|
D|---4-4--4-----------2-2--2-2-2----4-4--4-----------7-7-7-7---------|


[Verse]

E|-------------------------------------------------------------------|
B|-------------------------------------------------------------------|
G|-------------------------------------------------------------------|
D|---4-4-4-4-4-4-4-4-2-2-2-2-2-2-2-2-4-4-4-4-4-4-4-4-0-0-0-0-0-0-0-0-|
A|---4-4-4-4-4-4-4-4-2-2-2-2-2-2-2-2-4-4-4-4-4-4-4-4-0-0-0-0-0-0-0-0-|
D|---4-4-4-4-4-4-4-4-2-2-2-2-2-2-2-2-4-4-4-4-4-4-4-4-0-0-0-0-0-0-0-0-|
   (PM)------------------------------------------------------------(PM)
                                                                         2X
E|-------------------------------------------------------------------|
B|-------------------------------------------------------------------|
G|-------------------------------------------------------------------|
D|---4-4-4-4-4-4-4-4-2-2-2-2-2-2-2-2-4-4-4-4-4-4-4-4-7-7-7-7-6-6-6-6-|
A|---4-4-4-4-4-4-4-4-2-2-2-2-2-2-2-2-4-4-4-4-4-4-4-4-7-7-7-7-6-6-6-6-|
D|---4-4-4-4-4-4-4-4-2-2-2-2-2-2-2-2-4-4-4-4-4-4-4-4-7-7-7-7-6-6-6-6-|
   (PM)------------------------------------------------------------(PM)

E|-------------------------------------------------------------------|
B|----5-x-5-x-5-8-5-8------------------------------------------------|
G|-------------------------------------------------------------------|
D|-------------------------------------------------------------------|  8X
A|-------------------------------------------------------------------|
D|-------------------------------------------------------------------|


[Pre-Chorus]

E|--------------------------------------------------------------------|
B|--------------------------------------------------------------------|
G|--------------------------------------------------------------------|
D|----4-4-4-4-4-4-4-4---2-2-2-2-2-------------------------------------| 
A|----4-4-4-4-4-4-4-4---2-2-2-2-2-------------------------------------|
D|----4-4-4-4-4-4-4-4---2-2-2-2-2-------------------------------------|


[Chorus]

E|-----------------------------------------------------------------------|
B|-7-7-7-7-7-7-7-7-------------------------------------------------------|
G|-6-6-6-6-6-6-6-6---------------------4-4-4-4-4-4-4-4---7-7-7-7-6-6-6-6-|
D|-4-4-4-4-4-4-4-4---7-7-7-7-7-7-7-7---2-2-2-2-2-2-2-2---4-4-4-4-4-4-4-4-|  2X
A|-5-5-5-5-5-5-5-5---7-7-7-7-7-7-7-7---2-2-2-2-2-2-2-2---4-4-4-4-4-4-4-4-|
D|-------------------7-7-7-7-7-7-7-7---2-2-2-2-2-2-2-2---4-4-4-4-4-4-4-4-|

E|-------------------------------------------------------------------|
B|-------------------------------------------------------------------|
G|-------------------------------------------------------------------|
D|-0-x-0-x-0-x-0-x-0-x-0-x-0h4-4--2-x-2-x-2-x-2-x-2-x-2-x-2h4-4------|  
A|-0-x-0-x-0-x-0-x-0-x-0-x-0h4-4--2-x-2-x-2-x-2-x-2-x-2-x-2h4-4------|
D|-0-x-0-x-0-x-0-x-0-x-0-x-0h4-4--2-x-2-x-2-x-2-x-2-x-2-x-2h4-4------|
  does it feel so good...

E|----------------------------------------------------------------------|
B|----------------------------------------------------------------------|
G|----------------------------------------------------------------------|
D|-0-x-0-x-0-x-0-x-0-x-0-x-0h4-4--2-x-2-x-2-x-2-x--4-4-4-4-4------------|  
A|-0-x-0-x-0-x-0-x-0-x-0-x-0h4-4--2-x-2-x-2-x-2-x--4-4-4-4-4------------|
D|-0-x-0-x-0-x-0-x-0-x-0-x-0h4-4--2-x-2-x-2-x-2-x--4-4-4-4-4------------|


[Bridge]

E|---------------------------------------|
B|--7------------------------------------|
G|--6-9-4-6------------------------------|
D|--4-7-2-4------------------------------|  4X
A|--5-7-2-4------------------------------|
D|----7-2-4------------------------------|


[Interlude]

The other guitar plays the chorus
E|-------------------------------------------------|
B|-------------------------------------------------|
G|--9/11-11-11-11-11-11----------------------------| 
D|--x-x--x--x--x--x--x-----------------------------|3X
A|--7/9--9--9--9--9--9-----------------------------|
D|-------------------------------------------------| 
                                                        2X
E|-------------------------------------------------|
B|-------------------------------------------------|
G|-------------------------------------------------| 
D|--12-12-12-12-12-12-12-12-11-11-11-11-11-11-11-11|
A|-------------------------------------------------|
D|-------------------------------------------------| 

E|-----------------------------------------------------------------|
B|-----------------------------------------------------------------|
G|--9-9-9-9-9-9-9-9------------------------------------------------| 
D|------------------12-12-12-12-12-12-12-12-11-11-11-11-11-11-11-11|
A|-----------------------------------------------------------------|
D|-----------------------------------------------------------------| 

E|-----------------------------------------------------------------|
B|-----------------------------------------------------------------|
G|-----------------------------------------------------------------| 
D|-11-11-11-11-11-11-11-11-9-9-9-9-9-9-9-9-9-----------------------|
A|-----------------------------------------------------------------|
D|-----------------------------------------------------------------|

E|-----------------------------------------------------------------|
B|-----------------------------------------------------------------|
G|-9-9-9-9-9-9-9-9-11-11-11-11-11-11-11-11-------------------------| 
D|-----------------------------------------------------------------|
A|-----------------------------------------------------------------|
D|-----------------------------------------------------------------|

E|-----------------------------------------------------------------|
B|-10-10-10-10-12-12-14-9\-----------------------------------------|
G|-----------------------------------------------------------------| 
D|-----------------------------------------------------------------|
A|-----------------------------------------------------------------|
D|-----------------------------------------------------------------|


[Chorus]

E|-------------------------------------------------------------------------|
B|--7-7-7-7-7-7-7-7--------------------------------------------------------|
G|--6-6-6-6-6-6-6-6---------------------4-4-4-4-4-4-4-4---7-7-7-7-6-6-6-6--|
D|--4-4-4-4-4-4-4-4---7-7-7-7-7-7-7-7---2-2-2-2-2-2-2-2---4-4-4-4-4-4-4-4--|  2X
A|--5-5-5-5-5-5-5-5---7-7-7-7-7-7-7-7---2-2-2-2-2-2-2-2---4-4-4-4-4-4-4-4--|
D|--------------------7-7-7-7-7-7-7-7---2-2-2-2-2-2-2-2---4-4-4-4-4-4-4-4--|

E|-------------------------------------------------------------------|
B|-------------------------------------------------------------------|
G|-------------------------------------------------------------------|
D|-0-x-0-x-0-x-0-x-0-x-0-x-0h4-4--2-x-2-x-2-x-2-x-2-x-2-x-2h4-4------|  
A|-0-x-0-x-0-x-0-x-0-x-0-x-0h4-4--2-x-2-x-2-x-2-x-2-x-2-x-2h4-4------|
D|-0-x-0-x-0-x-0-x-0-x-0-x-0h4-4--2-x-2-x-2-x-2-x-2-x-2-x-2h4-4------|
  does it feel so good...

E|------------------------------------------------------------------------|
B|------------------------------------------------------------------------|
G|------------------------------------------------------------------------|
D|-0-x-0-x-0-x-0-x-0-x-0-x-0h4-4--2-x-2-x-2-x-2-x--4-4-4-4-4--------------|  
A|-0-x-0-x-0-x-0-x-0-x-0-x-0h4-4--2-x-2-x-2-x-2-x--4-4-4-4-4--------------|
D|-0-x-0-x-0-x-0-x-0-x-0-x-0h4-4--2-x-2-x-2-x-2-x--4-4-4-4-4--------------|


[Outro]

E|----------------------------------------------------------------|
B|----------------------------------------------------------------|
G|----------------------------------------------------------------|
D|---4-4--4-----------2-2--2-2-2----4-4--4-----------0-0-0-0-0-0--|
A|---4-4--4--2-4-2-4--2-2--2-2-2----4-4--4--2-4-2-4--0-0-0-0-0-0--|
D|---4-4--4-----------2-2--2-2-2----4-4--4-----------0-0-0-0-0-0--|

E|---------------------------------------------------------------------|
B|---------------------------------------------------------------------|
G|---------------------------------------------------------------------|
D|---4-4--4-----------2-2--2-2-2----4-4--4-----------7-7-7-7-7---------|
A|---4-4--4--2-4-2-4--2-2--2-2-2----4-4--4--2-4-2-4--7-7-7-7-7---------|
D|---4-4--4-----------2-2--2-2-2----4-4--4-----------7-7-7-7-7---------|


[Intro]

E|----------------------------------------------------------------|
B|----------------------------------------------------------------|
G|----------------------------------------------------------------|
D|---4-4--4-----------2-2--2-2-2----4-4--4-----------0-0-0-0-0-0--|
A|---4-4--4--2-4-2-4--2-2--2-2-2----4-4--4--2-4-2-4--0-0-0-0-0-0--|
D|---4-4--4-----------2-2--2-2-2----4-4--4-----------0-0-0-0-0-0--|


E|----------------------------------------------------------------|
B|----------------------------------------------------------------|
G|----------------------------------------------------------------|
D|---4-4--4-----------2-2--2-2-2----4-4--4-------------------2-4--|
A|---4-4--4--2-4-2-4--2-2--2-2-2----4-4--4--2-4-2-4------2-4------|
D|---4-4--4-----------2-2--2-2-2----4-4--4-----------2-4----------|


[Verse]

E|-------------------------------------------------------------------|
B|-------------------------------------------------------------------|
G|-------------------------------------------------------------------|
D|---4-4-4-4-4-4-4-4-2-2-2-2-2-2-2-2-4-4-4-4-4-4-4-4-0-0-0-0-0-0-0-0-|
A|---4-4-4-4-4-4-4-4-2-2-2-2-2-2-2-2-4-4-4-4-4-4-4-4-0-0-0-0-0-0-0-0-|
D|---4-4-4-4-4-4-4-4-2-2-2-2-2-2-2-2-4-4-4-4-4-4-4-4-0-0-0-0-0-0-0-0-|
   (PM)------------------------------------------------------------(PM)
                                                                         2X
E|-------------------------------------------------------------------|
B|-------------------------------------------------------------------|
G|-------------------------------------------------------------------|
D|---4-4-4-4-4-4-4-4-2-2-2-2-2-2-2-2-4-4-4-4-4-4-4-4-7-7-7-7-6-6-6-6-|
A|---4-4-4-4-4-4-4-4-2-2-2-2-2-2-2-2-4-4-4-4-4-4-4-4-7-7-7-7-6-6-6-6-|
D|---4-4-4-4-4-4-4-4-2-2-2-2-2-2-2-2-4-4-4-4-4-4-4-4-7-7-7-7-6-6-6-6-|
   (PM)------------------------------------------------------------(PM)

E|-------------------------------------------------------------------|
B|----5-x-5-x-5-8-5-8------------------------------------------------|
G|-------------------------------------------------------------------|
D|-------------------------------------------------------------------|  8X
A|-------------------------------------------------------------------|
D|-------------------------------------------------------------------|


[Pre-Chorus]

E|---------------------------------------------------------------------|
B|---------------------------------------------------------------------|
G|---------------------------------------------------------------------|
D|----4-4-4-4-4-4-4-4---2-2-2-2-2--------------------------------------| 
A|----4-4-4-4-4-4-4-4---2-2-2-2-2--------------------------------------|
D|----4-4-4-4-4-4-4-4---2-2-2-2-2--------------------------------------|


[Chorus]

E|-------------------------------------------------------------------------|
B|--7-7-7-7-7-7-7-7--------------------------------------------------------|
G|--6-6-6-6-6-6-6-6---------------------4-4-4-4-4-4-4-4---7-7-7-7-6-6-6-6--|
D|--4-4-4-4-4-4-4-4---7-7-7-7-7-7-7-7---2-2-2-2-2-2-2-2---4-4-4-4-4-4-4-4--|  2X
A|--5-5-5-5-5-5-5-5---7-7-7-7-7-7-7-7---2-2-2-2-2-2-2-2---4-4-4-4-4-4-4-4--|
D|--------------------7-7-7-7-7-7-7-7---2-2-2-2-2-2-2-2---4-4-4-4-4-4-4-4--|

E|-------------------------------------------------------------------|
B|-------------------------------------------------------------------|
G|-------------------------------------------------------------------|
D|-0-x-0-x-0-x-0-x-0-x-0-x-0h4-4--2-x-2-x-2-x-2-x-2-x-2-x-2h4-4------|  
A|-0-x-0-x-0-x-0-x-0-x-0-x-0h4-4--2-x-2-x-2-x-2-x-2-x-2-x-2h4-4------|
D|-0-x-0-x-0-x-0-x-0-x-0-x-0h4-4--2-x-2-x-2-x-2-x-2-x-2-x-2h4-4------|
  does it feel so good...

E|--------------------------------------------------------------------------|
B|--------------------------------------------------------------------------|
G|--------------------------------------------------------------------------|
D|-0-x-0-x-0-x-0-x-0-x-0-x-0h4-4--2-x-2-x-2-x-2-x--4-4-4-4-4----------------|  
A|-0-x-0-x-0-x-0-x-0-x-0-x-0h4-4--2-x-2-x-2-x-2-x--4-4-4-4-4----------------|
D|-0-x-0-x-0-x-0-x-0-x-0-x-0h4-4--2-x-2-x-2-x-2-x--4-4-4-4-4----------------|

E|--------------------------------------------------------------------------|
B|--------------------------------------------------------------------------|
G|--------------------------------------------------------------------------|
D|---4-4--4-----------2-2--2-2-2----4-4--4------------7-7-7-7---------------|
A|---4-4--4--2-4-2-4--2-2--2-2-2----4-4--4--2-4-2-4---7-7-7-7---------------|
D|---4-4--4-----------2-2--2-2-2----4-4--4------------7-7-7-7---------------|


[Verse]

E|-------------------------------------------------------------------|
B|-------------------------------------------------------------------|
G|-------------------------------------------------------------------|
D|---4-4-4-4-4-4-4-4-2-2-2-2-2-2-2-2-4-4-4-4-4-4-4-4-0-0-0-0-0-0-0-0-|
A|---4-4-4-4-4-4-4-4-2-2-2-2-2-2-2-2-4-4-4-4-4-4-4-4-0-0-0-0-0-0-0-0-|
D|---4-4-4-4-4-4-4-4-2-2-2-2-2-2-2-2-4-4-4-4-4-4-4-4-0-0-0-0-0-0-0-0-|
   (PM)------------------------------------------------------------(PM)
                                                                         2X
E|-------------------------------------------------------------------|
B|-------------------------------------------------------------------|
G|-------------------------------------------------------------------|
D|---4-4-4-4-4-4-4-4-2-2-2-2-2-2-2-2-4-4-4-4-4-4-4-4-7-7-7-7-6-6-6-6-|
A|---4-4-4-4-4-4-4-4-2-2-2-2-2-2-2-2-4-4-4-4-4-4-4-4-7-7-7-7-6-6-6-6-|
D|---4-4-4-4-4-4-4-4-2-2-2-2-2-2-2-2-4-4-4-4-4-4-4-4-7-7-7-7-6-6-6-6-|
   (PM)------------------------------------------------------------(PM)

E|-------------------------------------------------------------------|
B|----5-x-5-x-5-8-5-8------------------------------------------------|
G|-------------------------------------------------------------------|
D|-------------------------------------------------------------------|  8X
A|-------------------------------------------------------------------|
D|-------------------------------------------------------------------|


[Pre-Chorus]

E|-------------------------------------------------------------------|
B|-------------------------------------------------------------------|
G|-------------------------------------------------------------------|
D|----4-4-4-4-4-4-4-4---2-2-2-2-2------------------------------------| 
A|----4-4-4-4-4-4-4-4---2-2-2-2-2------------------------------------|
D|----4-4-4-4-4-4-4-4---2-2-2-2-2------------------------------------|


[Chorus]

E|---------------------------------------------------------------------------|
B|--7-7-7-7-7-7-7-7----------------------------------------------------------|
G|--6-6-6-6-6-6-6-6---------------------4-4-4-4-4-4-4-4---7-7-7-7-6-6-6-6----|
D|--4-4-4-4-4-4-4-4---7-7-7-7-7-7-7-7---2-2-2-2-2-2-2-2---4-4-4-4-4-4-4-4----|  2X
A|--5-5-5-5-5-5-5-5---7-7-7-7-7-7-7-7---2-2-2-2-2-2-2-2---4-4-4-4-4-4-4-4----|
D|--------------------7-7-7-7-7-7-7-7---2-2-2-2-2-2-2-2---4-4-4-4-4-4-4-4----|

E|-------------------------------------------------------------------|
B|-------------------------------------------------------------------|
G|-------------------------------------------------------------------|
D|-0-x-0-x-0-x-0-x-0-x-0-x-0h4-4--2-x-2-x-2-x-2-x-2-x-2-x-2h4-4------|  
A|-0-x-0-x-0-x-0-x-0-x-0-x-0h4-4--2-x-2-x-2-x-2-x-2-x-2-x-2h4-4------|
D|-0-x-0-x-0-x-0-x-0-x-0-x-0h4-4--2-x-2-x-2-x-2-x-2-x-2-x-2h4-4------|
  does it feel so good...

E|------------------------------------------------------------------------|
B|------------------------------------------------------------------------|
G|------------------------------------------------------------------------|
D|-0-x-0-x-0-x-0-x-0-x-0-x-0h4-4--2-x-2-x-2-x-2-x--4-4-4-4-4--------------|  
A|-0-x-0-x-0-x-0-x-0-x-0-x-0h4-4--2-x-2-x-2-x-2-x--4-4-4-4-4--------------|
D|-0-x-0-x-0-x-0-x-0-x-0-x-0h4-4--2-x-2-x-2-x-2-x--4-4-4-4-4--------------|


[Bridge]

E|---------------------------------------|
B|--7------------------------------------|
G|--6-9-4-6------------------------------|
D|--4-7-2-4------------------------------|  4X
A|--5-7-2-4------------------------------|
D|----7-2-4------------------------------|


[Interlude]

The other guitar plays the chorus
E|-------------------------------------------------|
B|-------------------------------------------------|
G|--9/11-11-11-11-11-11----------------------------| 
D|--x-x--x--x--x--x--x-----------------------------|3X
A|--7/9--9--9--9--9--9-----------------------------|
D|-------------------------------------------------| 
                                                        2X
E|-------------------------------------------------|
B|-------------------------------------------------|
G|-------------------------------------------------| 
D|--12-12-12-12-12-12-12-12-11-11-11-11-11-11-11-11|
A|-------------------------------------------------|
D|-------------------------------------------------| 

E|-----------------------------------------------------------------|
B|-----------------------------------------------------------------|
G|--9-9-9-9-9-9-9-9------------------------------------------------| 
D|------------------12-12-12-12-12-12-12-12-11-11-11-11-11-11-11-11|
A|-----------------------------------------------------------------|
D|-----------------------------------------------------------------| 

E|-----------------------------------------------------------------|
B|-----------------------------------------------------------------|
G|-----------------------------------------------------------------| 
D|-11-11-11-11-11-11-11-11-9-9-9-9-9-9-9-9-9-----------------------|
A|-----------------------------------------------------------------|
D|-----------------------------------------------------------------|

E|-----------------------------------------------------------------|
B|-----------------------------------------------------------------|
G|-9-9-9-9-9-9-9-9-11-11-11-11-11-11-11-11-------------------------| 
D|-----------------------------------------------------------------|
A|-----------------------------------------------------------------|
D|-----------------------------------------------------------------|

E|-----------------------------------------------------------------|
B|-10-10-10-10-12-12-14-9\-----------------------------------------|
G|-----------------------------------------------------------------| 
D|-----------------------------------------------------------------|
A|-----------------------------------------------------------------|
D|-----------------------------------------------------------------|


[Chorus]

E|---------------------------------------------------------------------------|
B|--7-7-7-7-7-7-7-7----------------------------------------------------------|
G|--6-6-6-6-6-6-6-6---------------------4-4-4-4-4-4-4-4---7-7-7-7-6-6-6-6----|
D|--4-4-4-4-4-4-4-4---7-7-7-7-7-7-7-7---2-2-2-2-2-2-2-2---4-4-4-4-4-4-4-4----|  2X
A|--5-5-5-5-5-5-5-5---7-7-7-7-7-7-7-7---2-2-2-2-2-2-2-2---4-4-4-4-4-4-4-4----|
D|--------------------7-7-7-7-7-7-7-7---2-2-2-2-2-2-2-2---4-4-4-4-4-4-4-4----|

E|-------------------------------------------------------------------|
B|-------------------------------------------------------------------|
G|-------------------------------------------------------------------|
D|-0-x-0-x-0-x-0-x-0-x-0-x-0h4-4--2-x-2-x-2-x-2-x-2-x-2-x-2h4-4------|  
A|-0-x-0-x-0-x-0-x-0-x-0-x-0h4-4--2-x-2-x-2-x-2-x-2-x-2-x-2h4-4------|
D|-0-x-0-x-0-x-0-x-0-x-0-x-0h4-4--2-x-2-x-2-x-2-x-2-x-2-x-2h4-4------|
  does it feel so good...

E|--------------------------------------------------------------------------|
B|--------------------------------------------------------------------------|
G|--------------------------------------------------------------------------|
D|-0-x-0-x-0-x-0-x-0-x-0-x-0h4-4--2-x-2-x-2-x-2-x--4-4-4-4-4----------------|  
A|-0-x-0-x-0-x-0-x-0-x-0-x-0h4-4--2-x-2-x-2-x-2-x--4-4-4-4-4----------------|
D|-0-x-0-x-0-x-0-x-0-x-0-x-0h4-4--2-x-2-x-2-x-2-x--4-4-4-4-4----------------|


[Outro]

E|----------------------------------------------------------------|
B|----------------------------------------------------------------|
G|----------------------------------------------------------------|
D|---4-4--4-----------2-2--2-2-2----4-4--4-----------0-0-0-0-0-0--|
A|---4-4--4--2-4-2-4--2-2--2-2-2----4-4--4--2-4-2-4--0-0-0-0-0-0--|
D|---4-4--4-----------2-2--2-2-2----4-4--4-----------0-0-0-0-0-0--|

E|------------------------------------------------------------------------|
B|------------------------------------------------------------------------|
G|------------------------------------------------------------------------|
D|---4-4--4-----------2-2--2-2-2----4-4--4-----------7-7-7-7-7------------|
A|---4-4--4--2-4-2-4--2-2--2-2-2----4-4--4--2-4-2-4--7-7-7-7-7------------|
D|---4-4--4-----------2-2--2-2-2----4-4--4-----------7-7-7-7-7------------|



************************************

| x  Dead note
| h  Hammer-on
| /  Slide up
| \  Slide down
| PM Palm mute 

************************************
Suggest correction
comments
print report bad tab
18 comments total. Showing first comments.
-2 reply
guitarlas19 51 wrote on May 18 2007, 04:13 pm

this is a fairly decent tab it sounds a little low but not bad.
on the beginning id change one thing from how it is though. Instead of

e/-------------------- -----------------------------
B/-------------------- -----------------------------
G/-------------------- I'd do -----------------------------
D/---4-4--4----------- ---4-4-----------------------
A/---4-4--4--2-4-2-4-- ---4-4-0-2-4-2---------------
D/---4-4--4----------- ---4-4-----------------------

thats just me.

0 reply
crazymonky09 10 wrote on May 24 2007, 03:33 pm

Intro :
E|----------------------------------------------------------------|
B|----------------------------------------------------------------|
G|---9-9--9-----------7-7--7-7-7----9-9--9-----------4-4-4-4-4-4--|
D|---9-9--9--7-9-7-9--7-7--7-7-7----9-9--9--7-9-7-9--4-4-4-4-4-4--|
A|---7-7--7-----------5-5--5-5-5----7-7--7-----------2-2-2-2-2-2--|
D|----------------------------------------------------------------|

Maybe it's wrong but I think it's right

+1 reply
ShadowPitch 188 wrote on May 27 2007, 03:57 pm

Are you sur3e the chorus is right?

guest
You may want to rate the tab now too:
select rating
Please do not post tabs as comments. Select "correction" instead!