Oops, an error
Loading. Please wait.
We have an official Misery Business tab made by UG professional guitarists. Check out the tab »
×
13 views 1 this week
no commentswrite comment
1 2 3 4 5
3 more votes to show rating
add to favorites
×
Save as Personal and add changes to this tab that will be seen only by you. Learn more ›
×
You can save this tab as Personal to edit and correct it or add notes. All changes will be seen only by you. Learn more »
launch autoscroll
font size
0
reset
how to read this tab
guitar tuner
backing track
0:00
0:00
edit
Autoscroll
slow
fast
+/-
esc
set tempo
stop
About this tab version
This guitar tab contains tabs for both lead and rhythm guitar. The chords in the chorus are simplified for easier playing in both parts. The solo in this song is pretty easy. Also, make sure to be in Drop C# tuning, or it will not sound correct. Was this info helpful? Yes No

Tuning : DROP C#
(All strings are lowered one half step and the low E string is lowered to C#)

Capo : NONE

Distortion: BOTH GUITARS ARE DISTORTED


Lead Guitar
[Mariachi Intro] (0:00)
Does not play

[Intro] 
(0:14)
D#|-----------------------------------------------------------------|
A#|-----------------------------------------------------------------|
F#|-----------------------------------------------------------------|
C#|--7-7--7-9h11-9h11-6-6--6-6-6--6-7-7--7-9h11-9h11-4-4--4-4-4-----|
G#|--9-9--------------7-7--7-7-7--7-9-9--------------5-5--5-5-5-----|
C#|-----------------------------------------------------------------|

D#|------------------------------------------------------------------------|
A#|------------------------------------------------------------------------|
F#|------------------------------------------------------------------------|
C#|--7-7--7-9h11-9h11-6-6--6-6-6--6-7-7--7-9h11-9h11---------9h11h14-14----|
G#|--9-9--------------7-7--7-7-7--7-9-9--------------9h11h12---------------|
C#|------------------------------------------------------------------------|

[Verse 1 pt.1] (0:26)
(Does not play
)

[Verse 1 pt.2] (0:37)
D#|-----------------------------------------------------------------|
A#|--7---7--7-7-7-10-7-10-7-----------------------------------------|
F#|-----------------------------------------------------------------|  (x3
)
C#|-----------------------------------------------------------------|
G#|-----------------------------------------------------------------|
C#|-----------------------------------------------------------------|

D#|-----------------------------------------------------------------|
A#|--7---7--7-7-7-5-5-5---------------------------------------------|
F#|-----------------------------------------------------------------|
C#|-----------------------------------------------------------------|
G#|-----------------------------------------------------------------|
C#|-----------------------------------------------------------------|

D#|-----------------------------------------------------------------|
A#|--7---7--7-7-7-10-7-10-7-----------------------------------------|
F#|-----------------------------------------------------------------|  (x3
)
C#|-----------------------------------------------------------------|
G#|-----------------------------------------------------------------|
C#|-----------------------------------------------------------------|

D#|-----------------------------------------------------------------|
A#|--12---12--12-12-12h14-14----------------------------------------|
F#|-----------------------------------------------------------------|
C#|-----------------------------------------------------------------|
G#|-----------------------------------------------------------------|
C#|-----------------------------------------------------------------|

[Pre-Chorus 1] (0:48)
P.M.|-----------------------------------------------------------------|
d#|-------------------------------------------------------------------|
A#|-------------------------------------------------------------------|
F#|-------------------------------------------------------------------|
C#|---4-4-4-4-4-4-4-4-2-2-2-2-2-2-2-2---------------------------------|
G#|---4-4-4-4-4-4-4-4-2-2-2-2-2-2-2-2---------------------------------|
C#|---4-4-4-4-4-4-4-4-2-2-2-2-2-2-2-2---------------------------------|

[Chorus 1] (0:51)
d#|------------------------------------------------------------------|
A#|------------------------------------------------------------------|
F#|------------------------------------------------------------------|
C#|--0--0--0--0--7--7--7--7--2--2--2--2--4--4--2--2------------------|  (x2
)
G#|--0--0--0--0--7--7--7--7--2--2--2--2--4--4--2--2------------------|
C#|--0--0--0--0--7--7--7--7--2--2--2--2--4--4--2--2------------------|

d#|------------------------------------------------------------------|
A#|------------------------------------------------------------------|
F#|------------------------------------------------------------------|
C#|--0--0--0--0--0--0--0-4-4-4-2--2--2--2--2--2--2-4-4-4-------------|
G#|--0--0--0--0--0--0--0-4-4-4-2--2--2--2--2--2--2-4-4-4-------------|
C#|--0--0--0--0--0--0--0-4-4-4-2--2--2--2--2--2--2-4-4-4-------------|

d#|------------------------------------------------------------------|
A#|------------------------------------------------------------------|
F#|------------------------------------------------------------------|
C#|--0--0--0--0--0--0--0-4-4-4-2--2--2--2--7---6---------------------|
G#|--0--0--0--0--0--0--0-4-4-4-2--2--2--2--7---6---------------------|
C#|--0--0--0--0--0--0--0-4-4-4-2--2--2--2--7---6---------------------|

[Post-Chorus 1] (1:13)
D#|-----------------------------------------------------------------|
A#|-----------------------------------------------------------------|
F#|-----------------------------------------------------------------|
C#|--7-7--7-9h11-9h11-6-6--6-6-6--6-7-7--7-9h11-9h11-4-4--4-4-4-----|
G#|--9-9--------------7-7--7-7-7--7-9-9--------------5-5--5-5-5-----|
C#|-----------------------------------------------------------------|

[Verse 2 pt.1] (1:18)
(Does not play
)

[Verse 2 pt. 2] (1:30)
D#|-----------------------------------------------------------------|
A#|--7---7--7-7-7-10-7-10-7-----------------------------------------|
F#|-----------------------------------------------------------------|  (x3
)
C#|-----------------------------------------------------------------|
G#|-----------------------------------------------------------------|
C#|-----------------------------------------------------------------|

D#|-----------------------------------------------------------------|
A#|--7---7--7-7-7-5-5-5---------------------------------------------|
F#|-----------------------------------------------------------------|
C#|-----------------------------------------------------------------|
G#|-----------------------------------------------------------------|
C#|-----------------------------------------------------------------|

D#|-----------------------------------------------------------------|
A#|--7---7--7-7-7-10-7-10-7-----------------------------------------|
F#|-----------------------------------------------------------------|  (x3
)
C#|-----------------------------------------------------------------|
G#|-----------------------------------------------------------------|
C#|-----------------------------------------------------------------|

D#|-----------------------------------------------------------------|
A#|--12---12--12-12-12h14-14----------------------------------------|
F#|-----------------------------------------------------------------|
C#|-----------------------------------------------------------------|
G#|-----------------------------------------------------------------|
C#|-----------------------------------------------------------------|

[Pre-Chorus 2] (1:40)
P.M.|-----------------------------------------------------------------|
d#|-------------------------------------------------------------------|
A#|-------------------------------------------------------------------|
F#|-------------------------------------------------------------------|
C#|---4-4-4-4-4-4-4-4-2-2-2-2-2-2-2-2---------------------------------|
G#|---4-4-4-4-4-4-4-4-2-2-2-2-2-2-2-2---------------------------------|
C#|---4-4-4-4-4-4-4-4-2-2-2-2-2-2-2-2---------------------------------|

[Chorus 2] (1:43)
d#|------------------------------------------------------------------|
A#|------------------------------------------------------------------|
F#|------------------------------------------------------------------|
C#|--0--0--0--0--7--7--7--7--2--2--2--2--4--4--2--2------------------|  (x2
)
G#|--0--0--0--0--7--7--7--7--2--2--2--2--4--4--2--2------------------|
C#|--0--0--0--0--7--7--7--7--2--2--2--2--4--4--2--2------------------|

d#|------------------------------------------------------------------|
A#|------------------------------------------------------------------|
F#|------------------------------------------------------------------|
C#|--0--0--0--0--0--0--0-4-4-4-2--2--2--2--2--2--2-4-4-4-------------|
G#|--0--0--0--0--0--0--0-4-4-4-2--2--2--2--2--2--2-4-4-4-------------|
C#|--0--0--0--0--0--0--0-4-4-4-2--2--2--2--2--2--2-4-4-4-------------|

d#|------------------------------------------------------------------|
A#|------------------------------------------------------------------|
F#|------------------------------------------------------------------|
C#|--0--0--0--0--0--0--0-4-4-4-2--2--2--2--7---6---------------------|
G#|--0--0--0--0--0--0--0-4-4-4-2--2--2--2--7---6---------------------|
C#|--0--0--0--0--0--0--0-4-4-4-2--2--2--2--7---6---------------------|

[Bridge] (2:06)
*Lower volume to about 2-4*
D#|------0-----------0---------0-------------------------------------|
A#|---------0-----------0---------0----------------------------------|
F#|--7-----------6---------------------------------------------------|
C#|--4-----------x---------4---------7---6---------------------------|  (x4
)
G#|--0-----------7---------2---------4---4---------------------------|
C#|--0-----------7---------2---------4---4---------------------------|

[Solo] (2:28)
D#|-----------------------------------------------------------------|
A#|-----------------------------------------------------------------|
F#|--9h11-11-11-11-11-11-11-----------------------------------------|
C#|-----------------------------------------------------------------|  (x3
)
G#|-----------------------------------------------------------------|
C#|-----------------------------------------------------------------|

D#|-----------------------------------------------------------------|
A#|--15-15-15-15-14-14-14-14----------------------------------------|
F#|-----------------------------------------------------------------|
C#|-----------------------------------------------------------------|
G#|-----------------------------------------------------------------|
C#|-----------------------------------------------------------------|

D#|-----------------------------------------------------------------|
A#|-----------------------------------------------------------------|
F#|--9h11-11-11-11-11-11-11-----------------------------------------|
C#|-----------------------------------------------------------------|  (x3
)
G#|-----------------------------------------------------------------|
C#|-----------------------------------------------------------------|

D#|-----------------------------------------------------------------|
A#|--15-15-15-15-14-14-14-14----------------------------------------|
F#|-----------------------------------------------------------------|
C#|-----------------------------------------------------------------|
G#|-----------------------------------------------------------------|
C#|-----------------------------------------------------------------|

D#|------------------------------------------------------------------------------|
A#|--17-17-17-17-17-17-17-17-15-15-15-15-15-15-15-14-14-14-14-14-14-14-14--------|
F#|------------------------------------------------------------------------------|
C#|------------------------------------------------------------------------------|
G#|------------------------------------------------------------------------------|
C#|------------------------------------------------------------------------------|

D#|------------------------------------------------------------------------------|
A#|--12-12-12-12-12-12-12-12-17-17-17-17-17-17-17-17-19-19-19-19-19-19-19-19-----|
F#|------------------------------------------------------------------------------|
C#|------------------------------------------------------------------------------|
G#|------------------------------------------------------------------------------|
C#|------------------------------------------------------------------------------|

D#|--17-17-17-17-19-19-21-21-21-------------------------------------|
A#|-----------------------------------------------------------------|
F#|-----------------------------------------------------------------|
C#|-----------------------------------------------------------------|
G#|-----------------------------------------------------------------|
C#|-----------------------------------------------------------------|

[Break] (2:50)
(Does not play
)

[Chorus 3] (2:55)
d#|------------------------------------------------------------------|
A#|------------------------------------------------------------------|
F#|------------------------------------------------------------------|
C#|--0--0--0--0--7--7--7--7--2--2--2--2--4--4--2--2------------------|  (x2)
G#|--0--0--0--0--7--7--7--7--2--2--2--2--4--4--2--2------------------|
C#|--0--0--0--0--7--7--7--7--2--2--2--2--4--4--2--2------------------|

d#|------------------------------------------------------------------|
A#|------------------------------------------------------------------|
F#|------------------------------------------------------------------|
C#|--0--0--0--0--0--0--0-4-4-4-2--2--2--2--2--2--2-4-4-4-------------|
G#|--0--0--0--0--0--0--0-4-4-4-2--2--2--2--2--2--2-4-4-4-------------|
C#|--0--0--0--0--0--0--0-4-4-4-2--2--2--2--2--2--2-4-4-4-------------|

d#|------------------------------------------------------------------|
A#|------------------------------------------------------------------|
F#|------------------------------------------------------------------|
C#|--0--0--0--0--0--0--0-4-4-4-2--2--2--2--7---6---------------------|
G#|--0--0--0--0--0--0--0-4-4-4-2--2--2--2--7---6---------------------|
C#|--0--0--0--0--0--0--0-4-4-4-2--2--2--2--7---6---------------------|

[Outro] (3:18)
D#|-----------------------------------------------------------------|
A#|-----------------------------------------------------------------|
F#|-----------------------------------------------------------------|
C#|--7-7--7-9h11-9h11-6-6--6-6-6--6-7-7--7-9h11-9h11-4-4--4-4-4-----|
G#|--9-9--------------7-7--7-7-7--7-9-9--------------5-5--5-5-5-----|
C#|-----------------------------------------------------------------|

D#|------------------------------------------------------------------------|
A#|------------------------------------------------------------------------|
F#|------------------------------------------------------------------------|
C#|--7-7--7-9h11-9h11-6-6--6-6-6--6-7-7--7-9h11-9h11-----------------------|
G#|--9-9--------------7-7--7-7-7--7-9-9--------------9--9--9--9------------|
C#|------------------------------------------------------------------------|


Rhythm guitar
[Mariachi Intro] (0:00)
(Does not play
)

[Intro] (0:14)
d#|------------------------------------------------------------------|
A#|------------------------------------------------------------------|
F#|------------------------------------------------------------------|
C#|--4-4--4-----------2-2--2-2---2-4-4--4---------0-0--0-0-----------|  (x2
)
G#|--4-4--4--2h4-2h4--2-2--2-2---2-4-4--4-2h4-2h4-0-0--0-0-----------|
C#|--4-4--4-----------2-2--2-2---2-4-4--4---------0-0--0-0-----------|

[Verse 1] (0:26)
P.M.|-------------------------------------------------------------------|
d#|---------------------------------------------------------------------|
A#|---------------------------------------------------------------------|
F#|---------------------------------------------------------------------|  (x4
)
C#|--4-4--4-----------2-2--2-2---2-4-4--4---------0-0--0-0--------------|
G#|--4-4--4--2h4-2h4--2-2--2-2---2-4-4--4-2h4-2h4-0-0--0-0--------------|
C#|--4-4--4-----------2-2--2-2---2-4-4--4---------0-0--0-0--------------|

[Pre-Chorus 1] (0:48)
P.M.|-----------------------------------------------------------------|
d#|-------------------------------------------------------------------|
A#|-------------------------------------------------------------------|
F#|-------------------------------------------------------------------|
C#|---4-4-4-4-4-4-4-4-2-2-2-2-2-2-2-2---------------------------------|
G#|---4-4-4-4-4-4-4-4-2-2-2-2-2-2-2-2---------------------------------|
C#|---4-4-4-4-4-4-4-4-2-2-2-2-2-2-2-2---------------------------------|

[Chorus 1] (0:51)
d#|------------------------------------------------------------------|
A#|------------------------------------------------------------------|
F#|------------------------------------------------------------------|
C#|--0--0--0--0--7--7--7--7--2--2--2--2--4--4--2--2------------------|  (x2
)
G#|--0--0--0--0--7--7--7--7--2--2--2--2--4--4--2--2------------------|
C#|--0--0--0--0--7--7--7--7--2--2--2--2--4--4--2--2------------------|

d#|------------------------------------------------------------------|
A#|------------------------------------------------------------------|
F#|------------------------------------------------------------------|
C#|--0--0--0--0--0--0--0-4-4-4-2--2--2--2--2--2--2-4-4-4-------------|
G#|--0--0--0--0--0--0--0-4-4-4-2--2--2--2--2--2--2-4-4-4-------------|
C#|--0--0--0--0--0--0--0-4-4-4-2--2--2--2--2--2--2-4-4-4-------------|

d#|------------------------------------------------------------------|
A#|------------------------------------------------------------------|
F#|------------------------------------------------------------------|
C#|--0--0--0--0--0--0--0-4-4-4-2--2--2--2--7---6---------------------|
G#|--0--0--0--0--0--0--0-4-4-4-2--2--2--2--7---6---------------------|
C#|--0--0--0--0--0--0--0-4-4-4-2--2--2--2--7---6---------------------|

[Post-Chorus 1] (1:13)
d#|------------------------------------------------------------------|
A#|------------------------------------------------------------------|
F#|------------------------------------------------------------------|
C#|--4-4--4-----------2-2--2-2---2-4-4--4---------0-0--0-0-----------|
G#|--4-4--4--2h4-2h4--2-2--2-2---2-4-4--4-2h4-2h4-0-0--0-0-----------|
C#|--4-4--4-----------2-2--2-2---2-4-4--4---------0-0--0-0-----------|

[Verse 2] (1:18)
P.M.|-------------------------------------------------------------------|
d#|---------------------------------------------------------------------|
A#|---------------------------------------------------------------------|
F#|---------------------------------------------------------------------|  (x4
)
C#|--4-4--4-----------2-2--2-2---2-4-4--4---------0-0--0-0--------------|
G#|--4-4--4--2h4-2h4--2-2--2-2---2-4-4--4-2h4-2h4-0-0--0-0--------------|
C#|--4-4--4-----------2-2--2-2---2-4-4--4---------0-0--0-0--------------|

[Pre-Chorus 2] (1:40)
P.M.|-----------------------------------------------------------------|
d#|-------------------------------------------------------------------|
A#|-------------------------------------------------------------------|
F#|-------------------------------------------------------------------|
C#|---4-4-4-4-4-4-4-4-2-2-2-2-2-2-2-2---------------------------------|
G#|---4-4-4-4-4-4-4-4-2-2-2-2-2-2-2-2---------------------------------|
C#|---4-4-4-4-4-4-4-4-2-2-2-2-2-2-2-2---------------------------------|

[Chorus 2] (1:43)
d#|------------------------------------------------------------------|
A#|------------------------------------------------------------------|
F#|------------------------------------------------------------------|
C#|--0--0--0--0--7--7--7--7--2--2--2--2--4--4--2--2------------------|  (x2
)
G#|--0--0--0--0--7--7--7--7--2--2--2--2--4--4--2--2------------------|
C#|--0--0--0--0--7--7--7--7--2--2--2--2--4--4--2--2------------------|

d#|------------------------------------------------------------------|
A#|------------------------------------------------------------------|
F#|------------------------------------------------------------------|
C#|--0--0--0--0--0--0--0-4-4-4-2--2--2--2--2--2--2-4-4-4-------------|
G#|--0--0--0--0--0--0--0-4-4-4-2--2--2--2--2--2--2-4-4-4-------------|
C#|--0--0--0--0--0--0--0-4-4-4-2--2--2--2--2--2--2-4-4-4-------------|

d#|------------------------------------------------------------------|
A#|------------------------------------------------------------------|
F#|------------------------------------------------------------------|
C#|--0--0--0--0--0--0--0-4-4-4-2--2--2--2--7---6---------------------|
G#|--0--0--0--0--0--0--0-4-4-4-2--2--2--2--7---6---------------------|
C#|--0--0--0--0--0--0--0-4-4-4-2--2--2--2--7---6---------------------|

[Bridge] (2:06)
(Does not play
)

[Solo] (2:28)
d#|------------------------------------------------------------------|
A#|------------------------------------------------------------------|
F#|------------------------------------------------------------------|
C#|--0--0--0--0--7--7--7--7--2--2--2--2--4--4--2--2------------------|  (x2
)
G#|--0--0--0--0--7--7--7--7--2--2--2--2--4--4--2--2------------------|
C#|--0--0--0--0--7--7--7--7--2--2--2--2--4--4--2--2------------------|

d#|------------------------------------------------------------------|
A#|------------------------------------------------------------------|
F#|------------------------------------------------------------------|
C#|--0--0--0--0--0--0--0-4-4-4-2--2--2--2--2--2--2-4-4-4-------------|
G#|--0--0--0--0--0--0--0-4-4-4-2--2--2--2--2--2--2-4-4-4-------------|
C#|--0--0--0--0--0--0--0-4-4-4-2--2--2--2--2--2--2-4-4-4-------------|

d#|------------------------------------------------------------------|
A#|------------------------------------------------------------------|
F#|------------------------------------------------------------------|
C#|--0--0--0--0--0--0--0-4-4-4-2--2--2--2--7---6---------------------|
G#|--0--0--0--0--0--0--0-4-4-4-2--2--2--2--7---6---------------------|
C#|--0--0--0--0--0--0--0-4-4-4-2--2--2--2--7---6---------------------|

[Break] (2:50)
(Does not play
)

[Chorus 3] (2:55)
d#|------------------------------------------------------------------|
A#|------------------------------------------------------------------|
F#|------------------------------------------------------------------|
C#|--0--0--0--0--7--7--7--7--2--2--2--2--4--4--2--2------------------|  (x2
)
G#|--0--0--0--0--7--7--7--7--2--2--2--2--4--4--2--2------------------|
C#|--0--0--0--0--7--7--7--7--2--2--2--2--4--4--2--2------------------|

d#|------------------------------------------------------------------|
A#|------------------------------------------------------------------|
F#|------------------------------------------------------------------|
C#|--0--0--0--0--0--0--0-4-4-4-2--2--2--2--2--2--2-4-4-4-------------|
G#|--0--0--0--0--0--0--0-4-4-4-2--2--2--2--2--2--2-4-4-4-------------|
C#|--0--0--0--0--0--0--0-4-4-4-2--2--2--2--2--2--2-4-4-4-------------|

d#|------------------------------------------------------------------|
A#|------------------------------------------------------------------|
F#|------------------------------------------------------------------|
C#|--0--0--0--0--0--0--0-4-4-4-2--2--2--2--7---6---------------------|
G#|--0--0--0--0--0--0--0-4-4-4-2--2--2--2--7---6---------------------|
C#|--0--0--0--0--0--0--0-4-4-4-2--2--2--2--7---6---------------------|

[Outro] (3:18)
d#|------------------------------------------------------------------|
A#|------------------------------------------------------------------|
F#|------------------------------------------------------------------|
C#|--4-4--4-----------2-2--2-2---2-4-4--4---------0-0--0-0-----------|  (x2
)
G#|--4-4--4--2h4-2h4--2-2--2-2---2-4-4--4-2h4-2h4-0-0--0-0-----------|
C#|--4-4--4-----------2-2--2-2---2-4-4--4---------0-0--0-0-----------|


********************

| h - Hammer-On
| x - Dead Note
| P.M. - Palm Mute

********************
Suggest correction
Creating personal tab
Creating personal tab
You can edit any tab online and save it as your Personal.

You can edit, replace or remove any tab part or add personal notes – all changes will be seen only by you.

Personal tabs can be accessed anytime from any device, even offline.
Learn more »
Give kudos to tab author, rate the tab!
1 2 3 4 5
comments
print report bad tab
guest
You may want to rate the tab now too:
select rating
Wanna post a correction for this tab? Suggest correction