Oops, an error
Loading. Please wait.
We have an official Misery Business tab made by UG professional guitarists. Check out the tab »
×
62,366 views 15 this week
7 commentsread comments
1 2 3 4 5
x 13
add to favorites
×
Save as Personal and add changes to this tab that will be seen only by you. Learn more ›
×
You can save this tab as Personal to edit and correct it or add notes. All changes will be seen only by you. Learn more »
launch autoscroll
font size
0
reset
transpose
0
reset
display chords
guitar tuner
backing track
0:00
0:00
edit
Autoscroll
slow
fast
+/-
esc
set tempo
stop
Strumming
There is no strumming pattern for this song yet. and get +5 IQ
Paramore
Misery Business
Riot
2007 Fueled By Rammen Records
Submitted by: paramore_fans@yahoo.com



Key: G#

Tuning: Standard EADGBe(but originally Drop C#, I just transposed it for people who only 
standard)

Chords used:
Fm - 133111 or x-8-10-10-9-8
C# - x46664
Eb - x68886
G# - 466544


Intro:

Silence:

Guitar 1:
Fm-Eb-Fm-C# (x2) then Fm

Guitar 2:
e|--------6h8p6h8----------------------6h8p6h8------------|
B|-6-6--6---------4-4--4-4-4--4-6-6--6---------6-6--6-6-6-|
G|--------------------------------------------------------|
D|--------------------------------------------------------|
A|--------------------------------------------------------|
E|--------------------------------------------------------|
then
e|--------6h8p6h8----------------------6h8p6h8-16--15-13--|
B|-6-6--6---------4-4--4-4-4--4-6-6--6--------------------|
G|--------------------------------------------------------|
D|--------------------------------------------------------|
A|--------------------------------------------------------|
E|--------------------------------------------------------|


Distortion:

Guitar 1:
Fm-Eb-Fm-C# (x2) then Fm

Guitar 2:
e|--------------------------------------------------------|
B|----------1---1------------------------1---1------------|
G|-1-1--1-3---3---0-0--0-0-0--0-1-1--1-3---3--------------|
D|---------------------------------------------3-3--3-3-3-|
A|--------------------------------------------------------|
E|--------------------------------------------------------|
then
e|---------------------------------------------------------|
B|----------1---1------------------------1---1-------1-2-4-|
G|-1-1--1-3---3---0-0--0-0-0--0-1-1--1-3---3-----1-3-------|
D|---------------------------------------------3-----------|
A|---------------------------------------------------------|
E|---------------------------------------------------------|

Verse 1:
Fm                       Eb
  I'm in the business of misery
                       Fm
Let's take it from the top
                         C#
She's got a body like an hourglass
                     Fm
that's tickin like a clock
                 Eb                     Fm
It's a matter of time before we all run out...
                      G#
When I thought he was mine she caught him by the mouth
Fm                    Eb                         Fm
  I waited eight long months She finally set him free
                   C#                          Fm
I told him I can't lie he was the only one for me
                     Eb
Two weeks and we had caught on fire
             Fm                        G#           Fm--Eb---
She's got it out for me But I wear the biggest smile


Chorus:
C#            G#               Eb
  whoa... and I never meant to brag
      Fm              Eb       C#
But I got him where I want him now
               G#                    Eb
Whoa... it was never my intention to brag
    Fm           Eb           C#
To steal it all away from you now
                        Eb
But God does it feel so good
                                 C#
Cause I got him where I want him now
                                   Eb
And if you could then you know you would

Cause God it just feels so... It just feels so good


Interlude:

Guitar 1: Fm-Eb-Fm-C#----

Guitar 2:
e|--------------------------------------------------------|
B|----------1---1------------------------1---1------------|
G|-1-1--1-3---3---0-0--0-0-0--0-1-1--1-3---3--------------|
D|---------------------------------------------3--3--3--3-|
A|--------------------------------------------------------|
E|--------------------------------------------------------|


Verse 2:
Fm                          Eb
  Second chances they don't ever matter
             Fm                                 C#
people never change Once a whore you're nothing more
                         Fm
I'm sorry, that'll never change
                 Eb                                  Fm
And about forgiveness, we're both supposed to have exchanged
                                 G#                Fm
I'm sorry honey, but I'm passing up, now look this way
                             Eb                        Fm
Well there's a million other girls who do it just like you
                       C#                 Fm
Looking as innocent as possible to get to who
                                   Eb               Fm
they want and what they like it's easy if you do it right
                   G#               Fm---Eb---
Well I refuse, I refuse, I REFUSE!!!


(Repeat Chorus except last line)

                        C#    G#  Eb  Fm
Coz God it's just feels sooooooooooooooo
              C#     G# Eb Fm
It just feels so good...


Bridge:
C#              G#                  Eb
  I watched his wildest dreams come true
           Fm             C#
Not one of them involving you
              G#                  Eb
Just watch my wildest dreams come true
           Fm
Not one of them involving...


Solo:

Guitar 1:
C#-G#-Eb-Fm (x2) C#--Eb (x2)


Guitar 2:
e|-------------------9-9-9-9-8-8-8-8-|
B|-4h6~--4h6~--4h6~------------------|
G|-----------------------------------|
D|-----------------------------------|
A|-----------------------------------|
E|-----------------------------------|
                 x2
then x8 means you will pluck the strings 8 times to save space
E|-11(x8)-9(x8)-8(x8)-6(x8)-11(x8)-13(x8)-16-16-16-16-18-18-20-20-15~-|
B|-----------------------------------------------------------------------------|
G|-----------------------------------------------------------------------------|
D|-----------------------------------------------------------------------------|
A|-----------------------------------------------------------------------------|
E|-----------------------------------------------------------------------------|


Chordles:
Whoa.. I never meant to brag But I got him where I want him now


(Repeat Chorus)


Outro:

Guitar 1:
Fm-Eb-Fm-C# (x2) then Fm

Guitar 2:
e|--------------------------------------------------------|
B|----------1---1------------------------1---1------------|
G|-1-1--1-3---3---0-0--0-0-0--0-1-1--1-3---3--------------|
D|---------------------------------------------3-3--3-3-3-|
A|--------------------------------------------------------|
E|--------------------------------------------------------|
then
e|--------------------------------------------------------|
B|----------1---1------------------------1---1------------|
G|-1-1--1-3---3---0-0--0-0-0--0-1-1--1-3---3--------------|
D|---------------------------------------------3--3--3--3-|
A|--------------------------------------------------------|
E|--------------------------------------------------------|

            
            
Suggest correction
Creating personal tab
Creating personal tab
You can edit any tab online and save it as your Personal.

You can edit, replace or remove any tab part or add personal notes – all changes will be seen only by you.

Personal tabs can be accessed anytime from any device, even offline.
Learn more »
comments
print report bad tab
7 comments total. Showing first comments.
0 reply
encore-black 46 Sep 13, 2007 07:16 AM

It just dont sound right to me for some reason...

0 reply
tul 10 Sep 16, 2007 10:20 AM

gr8 song..though the tabbing isnt so good..=[ sorry..keep practasing..thats the only way to get better=] keep it up!

0 reply
tul 10 Sep 16, 2007 10:20 AM

not accurate..sorry

guest
You may want to rate the tab now too:
select rating
Wanna post a correction for this tab? Suggest correction