Oops, an error
Loading. Please wait.
We have an official Misery Business tab made by UG professional guitarists. Check out the tab »
×
1,169,900 views 1,005 this week
102 commentsread comments
1 2 3 4 5
x 287
add to favorites
×
Save as Personal and add changes to this tab that will be seen only by you. Learn more ›
×
You can save this tab as Personal to edit and correct it or add notes. All changes will be seen only by you. Learn more »
launch autoscroll
font size
0
reset
how to read this tab
guitar tuner
backing track
0:00
0:00
edit
Autoscroll
slow
fast
+/-
esc
set tempo
stop
Author
(Gtr 1) (Rhythm): Distorted
(Gtr 2) (Lead): Distorted

Lead & Rhythm Guitar Tuning: (C#)
d#|------------------------------|
A#|--Tune--all--strings----------|
F#|--down--one--half--step.------|
C#|--Then--tune--low--E--down----|
G#|--to--match--the--D--string.--|
C#|------------------------------|

(Gtr 1) 
(RHYTHM GUITAR)
(0:00) Song starts with mariachi intro

[Intro]
(0:14) 
d#|-----------------|-----------------|-----------------|-----------------|
A#|-----------------|-----------------|-----------------|-----------------|
F#|-----------------|-----------------|-----------------|-----------------|
C#|-4-4---4---------|-2-2---2-2-2---2-|-4-4---4---------|-0-0---0-0-0-----|
G#|-4-4---4-2-4-2-4-|-2-2---2-2-2---2-|-4-4---4-2-4-2-4-|-0-0---0-0-0-----|
C#|-4-4---4---------|-2-2---2-2-2---2-|-4-4---4---------|-0-0---0-0-0-----|
     1 & 2 & 3 & 4 &   1 & 2 & 3 & 4 &   1 & 2 & 3 & 4 &   1 & 2 & 3 & 4 &
d#|-----------------|-----------------|-----------------|-----------------|
A#|-----------------|-----------------|-----------------|-----------------|
F#|-----------------|-----------------|-----------------|-----------------|
C#|-4-4---4---------|-2-2---2-2-2---2-|-4-4---4---------|-9-9-9-9-9-9-9-9-|
G#|-4-4---4-2-4-2-4-|-2-2---2-2-2---2-|-4-4---4-2-4-2-4-|-7-7-7-7-7-7-7-7-|
C#|-4-4---4---------|-2-2---2-2-2---2-|-4-4---4---------|-7-7-7-7-6-6-6-6-|
     1 & 2 & 3 & 4 &   1 & 2 & 3 & 4 &   1 & 2 & 3 & 4 &   1 & 2 & 3 & 4 &
      
[Verse] 
(0:25) 
(Palm muted)
d#|-----------------|-----------------|-----------------|-----------------|
A#|-----------------|-----------------|-----------------|-----------------|
F#|-----------------|-----------------|-----------------|-----------------|
C#|-4-4---4---------|-2-2---2-2-2---2-|-4-4---4---------|-0-0---0-0-0---0-|
G#|-4-4---4-2-4-2-4-|-2-2---2-2-2---2-|-4-4---4-2-4-2-4-|-0-0---0-0-0---0-|
C#|-4-4---4---------|-2-2---2-2-2---2-|-4-4---4---------|-0-0---0-0-0---0-|
     1 & 2 & 3 & 4 &   1 & 2 & 3 & 4 &   1 & 2 & 3 & 4 &   1 & 2 & 3 & 4 &                (x2)
d#|-----------------|-----------------|-----------------|-----------------|
A#|-----------------|-----------------|-----------------|-----------------|
F#|-----------------|-----------------|-----------------|-----------------|
C#|-4-4---4---------|-2-2---2-2-2---2-|-4-4---4---------|-9-9-9-9-9-9-9-9-|
G#|-4-4---4-2-4-2-4-|-2-2---2-2-2---2-|-4-4---4-2-4-2-4-|-7-7-7-7-7-7-7-7-|
C#|-4-4---4---------|-2-2---2-2-2---2-|-4-4---4---------|-7-7-7-7-6-6-6-6-|
     1 & 2 & 3 & 4 &   1 & 2 & 3 & 4 &   1 & 2 & 3 & 4 &   1 & 2 & 3 & 4 &
         
[Pre-Chorus]
(0:47) 
(Palm muted)
d#|-----------------|-----------------|
A#|-----------------|-----------------|
F#|-----------------|-----------------|
C#|-4-4-4-4-4-4-4-4-|-2-2-2-2-2-------|
G#|-4-4-4-4-4-4-4-4-|-2-2-2-2-2-------|
C#|-4-4-4-4-4-4-4-4-|-2-2-2-2-2-------|
     1 & 2 & 3 & 4 &   1 & 2 & 3 & 4 &
         
[Chorus pt. 1]
(0:50) 
d#|-----------------|-----------------|-----------------|-----------------|
A#|-7-7-7-7-7-7-7-7-|-----------------|-----------------|-----------------|
F#|-x-x-x-x-x-x-x-x-|-6-6-6-6-6-6-6-6-|-----------------|-6-6-6-6---------|
C#|-4-4-4-4-4-4-4-4-|-7-7-7-7-7-7-7-7-|-4-4-4-4-4-4-4-4-|-7-7-7-7-6-6-6-6-| (x2)
G#|-5-5-5-5-5-5-5-5-|-7-7-7-7-7-7-7-7-|-2-2-2-2-2-2-2-2-|-4-4-4-4-4-4-4-4-|
C#|-----------------|-----------------|-2-2-2-2-2-2-2-2-|-4-4-4-4-4-4-4-4-|
     1 & 2 & 3 & 4 &   1 & 2 & 3 & 4 &   1 & 2 & 3 & 4 &   1 & 2 & 3 & 4 &
        
[Chorus pt. 2]
(1:01) 
d#|-----------------|-----------------|-----------------|-----------------|
A#|-----------------|-----------------|-----------------|-----------------|
F#|-----------------|-----------------|-----------------|-----------------|
C#|-0---0---0---0---|-0---0---0-4-4-4-|-2---2---2---2---|-2---2---2-4-4-4-|
G#|-0---0---0---0---|-0---0---0-4-4-4-|-2---2---2---2---|-2---2---2-4-4-4-|
C#|-0---0---0---0---|-0---0---0-4-4-4-|-2---2---2---2---|-2---2---2-4-4-4-|
     1 & 2 & 3 & 4 &   1 & 2 & 3 & 4 &   1 & 2 & 3 & 4 &   1 & 2 & 3 & 4 &
d#|-----------------|-----------------|-----------------|-----------------|
A#|-----------------|-----------------|-----------------|-----------------|
F#|-----------------|-----------------|-----------------|-----------------|
C#|-0---0---0---0---|-0---0---0-4-4-4-|-2---2---2---2---|-9-9-9-9-9-------|
G#|-0---0---0---0---|-0---0---0-4-4-4-|-2---2---2---2---|-7-7-7-7-7-------|
C#|-0---0---0---0---|-0---0---0-4-4-4-|-2---2---2---2---|-7-7-7-7-6-------|
     1 & 2 & 3 & 4 &   1 & 2 & 3 & 4 &   1 & 2 & 3 & 4 &   1 & 2 & 3 & 4 &
         
[Post-Chorus]
(1:12) 
d#|-----------------|-----------------|-----------------|-----------------|
A#|-----------------|-----------------|-----------------|-----------------|
F#|-----------------|-----------------|-----------------|-----------------|
C#|-4-4---4---------|-2-2---2-2-2---2-|-4-4---4---------|-0--0--0-0-------|
G#|-4-4---4-2-4-2-4-|-2-2---2-2-2---2-|-4-4---4-2-4-2-4-|-0--0--0-0-------|
C#|-4-4---4---------|-2-2---2-2-2---2-|-4-4---4---------|-0--0--0-0-------|
     1 & 2 & 3 & 4 &   1 & 2 & 3 & 4 &   1 & 2 & 3 & 4 &   1 & 2 & 3 & 4 &
        
[Verse]
(1:17) 
(Palm muted)
d#|-----------------|-----------------|-----------------|-----------------|
A#|-----------------|-----------------|-----------------|-----------------|
F#|-----------------|-----------------|-----------------|-----------------|
C#|-4-4---4---------|-2-2---2-2-2---2-|-4-4---4---------|-0-0---0-0-0---0-|
G#|-4-4---4-2-4-2-4-|-2-2---2-2-2---2-|-4-4---4-2-4-2-4-|-0-0---0-0-0---0-|
C#|-4-4---4---------|-2-2---2-2-2---2-|-4-4---4---------|-0-0---0-0-0---0-|
     1 & 2 & 3 & 4 &   1 & 2 & 3 & 4 &   1 & 2 & 3 & 4 &   1 & 2 & 3 & 4 &                (x2)
d#|-----------------|-----------------|-----------------|-----------------|
A#|-----------------|-----------------|-----------------|-----------------|
F#|-----------------|-----------------|-----------------|-----------------|
C#|-4-4---4---------|-2-2---2-2-2---2-|-4-4---4---------|-9-9-9-9-9-9-9-9-|
G#|-4-4---4-2-4-2-4-|-2-2---2-2-2---2-|-4-4---4-2-4-2-4-|-7-7-7-7-7-7-7-7-|
C#|-4-4---4---------|-2-2---2-2-2---2-|-4-4---4---------|-7-7-7-7-6-6-6-6-|
     1 & 2 & 3 & 4 &   1 & 2 & 3 & 4 &   1 & 2 & 3 & 4 &   1 & 2 & 3 & 4 &

[Pre-Chorus]
(1:40) 
(Palm muted)
d#|-----------------|-----------------|
A#|-----------------|-----------------|
F#|-----------------|-----------------|
C#|-4-4-4-4-4-4-4-4-|-2-2-2-2-2-------|
G#|-4-4-4-4-4-4-4-4-|-2-2-2-2-2-------|
C#|-4-4-4-4-4-4-4-4-|-2-2-2-2-2-------|
     1 & 2 & 3 & 4 &   1 & 2 & 3 & 4 &

[Chorus pt. 1]
(1:43) 
d#|-----------------|-----------------|-----------------|-----------------|
A#|-7-7-7-7-7-7-7-7-|-----------------|-----------------|-----------------|
F#|-x-x-x-x-x-x-x-x-|-6-6-6-6-6-6-6-6-|-----------------|-6-6-6-6---------|
C#|-4-4-4-4-4-4-4-4-|-7-7-7-7-7-7-7-7-|-4-4-4-4-4-4-4-4-|-7-7-7-7-6-6-6-6-| (x2)
G#|-5-5-5-5-5-5-5-5-|-7-7-7-7-7-7-7-7-|-2-2-2-2-2-2-2-2-|-4-4-4-4-4-4-4-4-|
C#|-----------------|-----------------|-2-2-2-2-2-2-2-2-|-4-4-4-4-4-4-4-4-|
     1 & 2 & 3 & 4 &   1 & 2 & 3 & 4 &   1 & 2 & 3 & 4 &   1 & 2 & 3 & 4 &
       
[Chorus pt. 2]
(1:54) 
d#|-----------------|-----------------|-----------------|-----------------|
A#|-----------------|-----------------|-----------------|-----------------|
F#|-----------------|-----------------|-----------------|-----------------|
C#|-0---0---0---0---|-0---0---0-4-4-4-|-2---2---2---2---|-2---2---2-4-4-4-|
G#|-0---0---0---0---|-0---0---0-4-4-4-|-2---2---2---2---|-2---2---2-4-4-4-|
C#|-0---0---0---0---|-0---0---0-4-4-4-|-2---2---2---2---|-2---2---2-4-4-4-|
     1 & 2 & 3 & 4 &   1 & 2 & 3 & 4 &   1 & 2 & 3 & 4 &   1 & 2 & 3 & 4 &
d#|-----------------|-----------------|-----------------|-----------------|
A#|-----------------|-----------------|-----------------|-----------------|
F#|-----------------|-----------------|-----------------|-----------------|
C#|-0---0---0---0---|-0---0---0-4-4-4-|-2---2---2---2---|-9-9-9-9-9-------|
G#|-0---0---0---0---|-0---0---0-4-4-4-|-2---2---2---2---|-7-7-7-7-7-------|
C#|-0---0---0---0---|-0---0---0-4-4-4-|-2---2---2---2---|-7-7-7-7-6-------|
     1 & 2 & 3 & 4 &   1 & 2 & 3 & 4 &   1 & 2 & 3 & 4 &   1 & 2 & 3 & 4 &

[Bridge]
(2:05) 
*Strum chords and hold*
d#|-----------------|-----------------|-----------------|-----------------|
A#|-7---------------|-----------------|-----------------|-----------------|
F#|-x---------------|-6---------------|-----------------|-6---------------| (x4)
C#|-4---------------|-7---------------|-4---------------|-7-------6-------|
G#|-5---------------|-7---------------|-2---------------|-4-------4-------|
C#|-----------------|-----------------|-2---------------|-4-------4-------|
     1 & 2 & 3 & 4 &   1 & 2 & 3 & 4 &   1 & 2 & 3 & 4 &   1 & 2 & 3 & 4 &
       
[Solo pt. 1]
(2:27) 
d#|-----------------|-----------------|-----------------|-----------------|
A#|-7-7-7-7-7-7-7-7-|-----------------|-----------------|-----------------|
F#|-x-x-x-x-x-x-x-x-|-6-6-6-6-6-6-6-6-|-----------------|-6-6-6-6---------| (x2)
C#|-4-4-4-4-4-4-4-4-|-7-7-7-7-7-7-7-7-|-4-4-4-4-4-4-4-4-|-7-7-7-7-6-6-6-6-|
G#|-5-5-5-5-5-5-5-5-|-7-7-7-7-7-7-7-7-|-2-2-2-2-2-2-2-2-|-4-4-4-4-4-4-4-4-|
C#|-----------------|-----------------|-2-2-2-2-2-2-2-2-|-4-4-4-4-4-4-4-4-|
     1 & 2 & 3 & 4 &   1 & 2 & 3 & 4 &   1 & 2 & 3 & 4 &   1 & 2 & 3 & 4 &
        
[Solo pt. 2]
(2:38) 
d#|-----------------|-----------------|-----------------|-----------------|
A#|-----------------|-----------------|-----------------|-----------------|
F#|-----------------|-----------------|-----------------|-----------------|
C#|-0-0-0-0-0-0-0-0-|-0-0-0-0-0-4-4-4-|-2-2-2-2-2-2-2-2-|-2-2-2-2-2-4-4-4-|
G#|-0-0-0-0-0-0-0-0-|-0-0-0-0-0-4-4-4-|-2-2-2-2-2-2-2-2-|-2-2-2-2-2-4-4-4-|
C#|-0-0-0-0-0-0-0-0-|-0-0-0-0-0-4-4-4-|-2-2-2-2-2-2-2-2-|-2-2-2-2-2-4-4-4-|
     1 & 2 & 3 & 4 &   1 & 2 & 3 & 4 &   1 & 2 & 3 & 4 &   1 & 2 & 3 & 4 &
d#|-----------------|-----------------|-----------------|-----------------|
A#|-----------------|-----------------|-----------------|-----------------|
F#|-----------------|-----------------|-----------------|-----------------|
C#|-0-0-0-0-0-0-0-0-|-0-0-0-0-0-4-4-4-|-2-2-2-2-2-2-2-2-|-9-9-9-9-9-------|
G#|-0-0-0-0-0-0-0-0-|-0-0-0-0-0-4-4-4-|-2-2-2-2-2-2-2-2-|-7-7-7-7-7-------|
C#|-0-0-0-0-0-0-0-0-|-0-0-0-0-0-4-4-4-|-2-2-2-2-2-2-2-2-|-7-7-7-7-6-------|
     1 & 2 & 3 & 4 &   1 & 2 & 3 & 4 &   1 & 2 & 3 & 4 &   1 & 2 & 3 & 4 &
       
[Chorus pt. 1]
(2:55) 
d#|-----------------|-----------------|-----------------|-----------------|
A#|-7-7-7-7-7-7-7-7-|-----------------|-----------------|-----------------|
F#|-x-x-x-x-x-x-x-x-|-6-6-6-6-6-6-6-6-|-----------------|-6-6-6-6---------|
C#|-4-4-4-4-4-4-4-4-|-7-7-7-7-7-7-7-7-|-4-4-4-4-4-4-4-4-|-7-7-7-7-6-6-6-6-| (x2)
G#|-5-5-5-5-5-5-5-5-|-7-7-7-7-7-7-7-7-|-2-2-2-2-2-2-2-2-|-4-4-4-4-4-4-4-4-|
C#|-----------------|-----------------|-2-2-2-2-2-2-2-2-|-4-4-4-4-4-4-4-4-|
     1 & 2 & 3 & 4 &   1 & 2 & 3 & 4 &   1 & 2 & 3 & 4 &   1 & 2 & 3 & 4 &

[Chorus pt. 2]
(3:06) 
d#|-----------------|-----------------|-----------------|-----------------|
A#|-----------------|-----------------|-----------------|-----------------|
F#|-----------------|-----------------|-----------------|-----------------|
C#|-0---0---0---0---|-0---0---0-4-4-4-|-2---2---2---2---|-2---2---2-4-4-4-|
G#|-0---0---0---0---|-0---0---0-4-4-4-|-2---2---2---2---|-2---2---2-4-4-4-|
C#|-0---0---0---0---|-0---0---0-4-4-4-|-2---2---2---2---|-2---2---2-4-4-4-|
     1 & 2 & 3 & 4 &   1 & 2 & 3 & 4 &   1 & 2 & 3 & 4 &   1 & 2 & 3 & 4 &
d#|-----------------|-----------------|-----------------|-----------------|
A#|-----------------|-----------------|-----------------|-----------------|
F#|-----------------|-----------------|-----------------|-----------------|
C#|-0---0---0---0---|-0---0---0-4-4-4-|-2---2---2---2---|-9-9-9-9-9-------|
G#|-0---0---0---0---|-0---0---0-4-4-4-|-2---2---2---2---|-7-7-7-7-7-------|
C#|-0---0---0---0---|-0---0---0-4-4-4-|-2---2---2---2---|-7-7-7-7-6-------|
     1 & 2 & 3 & 4 &   1 & 2 & 3 & 4 &   1 & 2 & 3 & 4 &   1 & 2 & 3 & 4 &

[Post-Chorus]
(3:17) 
d#|-----------------|-----------------|-----------------|-----------------|
A#|-----------------|-----------------|-----------------|-----------------|
F#|-----------------|-----------------|-----------------|-----------------|
C#|-4-4---4---------|-2-2---2-2-2---2-|-4-4---4---------|-0--0--0-0-------|
G#|-4-4---4-2-4-2-4-|-2-2---2-2-2---2-|-4-4---4-2-4-2-4-|-0--0--0-0-------|
C#|-4-4---4---------|-2-2---2-2-2---2-|-4-4---4---------|-0--0--0-0-------|
     1 & 2 & 3 & 4 &   1 & 2 & 3 & 4 &   1 & 2 & 3 & 4 &   1 & 2 & 3 & 4 &

(Gtr 2) 
(LEAD GUITAR)

(0:00) Song starts with mariachi intro

[Intro]
(0:14) 
d#|-------------------------|-------------------------|
A#|-------------------------|-------------------------|
F#|-------------------------|-------------------------|
C#|--------------9-11--9-11-|-------------------------|
G#|-12-12----12-------------|-11-11----11-11-11----11-|
C#|-------------------------|-------------------------|
      1  &  2  &  3  &  4  &    1  &  2  &  3  &  4  &
d#|-------------------------|-------------------------|
A#|-------------------------|-------------------------|
F#|-------------------------|-------------------------|
C#|--------------9-11--9-11-|-------------------------|
G#|-12-12----12-------------|--9--9-----9--9--9-------|
C#|-------------------------|-------------------------|
      1  &  2  &  3  &  4  &    1  &  2  &  3  &  4  &
d#|-------------------------|-------------------------|
A#|-------------------------|-------------------------|
F#|-------------------------|-------------------------|
C#|--------------9-11--9-11-|-------------------------|
G#|-12-12----12-------------|-11-11----11-11-11----11-|
C#|-------------------------|-------------------------|
      1  &  2  &  3  &  4  &    1  &  2  &  3  &  4  &
d#|-------------------------|-------------------------|
A#|-------------------------|-------------------------|
F#|-------------------------|--------------6--9--9----|
C#|--------------9-11--9-11-|--------7--9-------------|
G#|-12-12----12-------------|--7--9-------------------|
C#|-------------------------|-------------------------|
      1  &  2  &  3  &  4  &    1  &  2  &  3  &  4  &
          
[Verse]
(0:25) 
(Does not play)

[Verse]
(Comes in during "I waited eight long months...")
(0:36) 
d#|-------------------------|-------------------------|
A#|--7-----7--7-7-7-10-7-10-|--7-----7--7-7-7-10-7-10-|
F#|-------------------------|-------------------------|
C#|-------------------------|-------------------------|
G#|-------------------------|-------------------------|
C#|-------------------------|-------------------------|
      1  &  2  &  3  &  4  &    1  &  2  &  3  &  4  &
d#|-------------------------|-------------------------|
A#|--7-----7--7-7-7-10-7-10-|--7-----7--7-7-7-5--5--5-|
F#|-------------------------|-------------------------|
C#|-------------------------|-------------------------|
G#|-------------------------|-------------------------|
C#|-------------------------|-------------------------|
      1  &  2  &  3  &  4  &    1  &  2  &  3  &  4  &
d#|-------------------------|-------------------------|
A#|--7-----7--7-7-7-10-7-10-|--7-----7--7-7-7-10-7-10-|
F#|-------------------------|-------------------------|
C#|-------------------------|-------------------------|
G#|-------------------------|-------------------------|
C#|-------------------------|-------------------------|
      1  &  2  &  3  &  4  &    1  &  2  &  3  &  4  &
d#|-------------------------|--7-----7--7-7-7/9--9----|
A#|--7-----7--7-7-7-10-7-10-|-------------------------|
F#|-------------------------|-------------------------|
C#|-------------------------|-------------------------|
G#|-------------------------|-------------------------|
C#|-------------------------|-------------------------|
      1  &  2  &  3  &  4  &    1  &  2  &  3  &  4  &
         
[Pre-Chorus]
(0:47) 
(Palm muted)
d#|-----------------|-----------------|
A#|-----------------|-----------------|
F#|-----------------|-----------------|
C#|-4-4-4-4-4-4-4-4-|-2-2-2-2-2-------|
G#|-4-4-4-4-4-4-4-4-|-2-2-2-2-2-------|
C#|-4-4-4-4-4-4-4-4-|-2-2-2-2-2-------|
     1 & 2 & 3 & 4 &   1 & 2 & 3 & 4 &
        
[Chorus pt. 1]
(0:50) 
(Does not play)

[Chorus pt. 2]
(1:01) 
d#|-------------------------|-------------------------|
A#|-------------------------|-------------------------|
F#|-11----11----11----11----|-11----11----11-14-14-14-|
C#|--x-----x-----x-----x----|--x-----x-----x--x--x--x-|
G#|--9-----9-----9-----9----|--9-----9-----9-12-12-12-|
C#|-------------------------|-------------------------|
      1  &  2  &  3  &  4  &    1  &  2  &  3  &  4  &
d#|-------------------------|-------------------------|
A#|-------------------------|-------------------------|
F#|-13----13----13----13----|-13----13----13-14-14-14-|
C#|--x-----x-----x-----x----|--x-----x-----x--x--x--x-|
G#|-11----11----11----11----|-11----11----11-12-12-12-|
C#|-------------------------|-------------------------|
      1  &  2  &  3  &  4  &    1  &  2  &  3  &  4  &
d#|-------------------------|-------------------------|
A#|-------------------------|-------------------------|
F#|-11----11----11----11----|-11----11----11-14-14-14-|
C#|--x-----x-----x-----x----|--x-----x-----x--x--x--x-|
G#|--9-----9-----9-----9----|--9-----9-----9-12-12-12-|
C#|-------------------------|-------------------------|
      1  &  2  &  3  &  4  &    1  &  2  &  3  &  4  &
d#|-------------------------|-------------------------|
A#|-------------------------|-------------------------|
F#|-13----13----13----13----|-18-18-18-18-16----------|
C#|--x-----x-----x-----x----|--x--x--x--x--x----------|
G#|-11----11----11----11----|-16-16-16-16-14----------|
C#|-------------------------|-------------------------|
      1  &  2  &  3  &  4  &    1  &  2  &  3  &  4  &
        
[Post-Chorus]
(1:12) 
d#|-------------------------|-------------------------|
A#|-------------------------|-------------------------|
F#|-------------------------|-------------------------|
C#|--------------9-11--9-11-|-------------------------|
G#|-12-12----12-------------|-11-11----11-11-11----11-|
C#|-------------------------|-------------------------|
      1  &  2  &  3  &  4  &    1  &  2  &  3  &  4  &
d#|-------------------------|-------------------------|
A#|-------------------------|-------------------------|
F#|-------------------------|-------------------------|
C#|--------------9-11--9-11-|-------------------------|
G#|-12-12----12-------------|--9----9---9--9----------|
C#|-------------------------|-------------------------|
      1  &  2  &  3  &  4  &    1  &  2  &  3  &  4  &
        
[Verse]
(1:18) 
(Does not play)

[Verse]
(1:29) 
(Comes in here)
d#|-------------------------|-------------------------|
A#|--7-----7--7-7-7-10-7-10-|--7-----7--7-7-7-10-7-10-|
F#|-------------------------|-------------------------|
C#|-------------------------|-------------------------|
G#|-------------------------|-------------------------|
C#|-------------------------|-------------------------|
      1  &  2  &  3  &  4  &    1  &  2  &  3  &  4  &
d#|-------------------------|-------------------------|
A#|--7-----7--7-7-7-10-7-10-|--7-----7--7-7-7-5--5--5-|
F#|-------------------------|-------------------------|
C#|-------------------------|-------------------------|
G#|-------------------------|-------------------------|
C#|-------------------------|-------------------------|
      1  &  2  &  3  &  4  &    1  &  2  &  3  &  4  &
d#|-------------------------|-------------------------|
A#|--7-----7--7-7-7-10-7-10-|--7-----7--7-7-7-10-7-10-|
F#|-------------------------|-------------------------|
C#|-------------------------|-------------------------|
G#|-------------------------|-------------------------|
C#|-------------------------|-------------------------|
      1  &  2  &  3  &  4  &    1  &  2  &  3  &  4  &
d#|-------------------------|--7-----7--7-7-7/9--9----|
A#|--7-----7--7-7-7-10-7-10-|-------------------------|
F#|-------------------------|-------------------------|
C#|-------------------------|-------------------------|
G#|-------------------------|-------------------------|
C#|-------------------------|-------------------------|
      1  &  2  &  3  &  4  &    1  &  2  &  3  &  4  &

[Pre-Chorus]
(1:40) 
(Palm muted)
d#|-----------------|-----------------|
A#|-----------------|-----------------|
F#|-----------------|-----------------|
C#|-4-4-4-4-4-4-4-4-|-2-2-2-2-2-------|
G#|-4-4-4-4-4-4-4-4-|-2-2-2-2-2-------|
C#|-4-4-4-4-4-4-4-4-|-2-2-2-2-2-------|
     1 & 2 & 3 & 4 &   1 & 2 & 3 & 4 &

[Chorus pt. 1]
(1:43)
(Does not play) 

[Chorus pt. 2]
(1:54)
d#|-------------------------|-------------------------|
A#|-------------------------|-------------------------|
F#|-11----11----11----11----|-11----11----11-14-14-14-|
C#|--x-----x-----x-----x----|--x-----x-----x--x--x--x-|
G#|--9-----9-----9-----9----|--9-----9-----9-12-12-12-|
C#|-------------------------|-------------------------|
      1  &  2  &  3  &  4  &    1  &  2  &  3  &  4  &
d#|-------------------------|-------------------------|
A#|-------------------------|-------------------------|
F#|-13----13----13----13----|-13----13----13-14-14-14-|
C#|--x-----x-----x-----x----|--x-----x-----x--x--x--x-|
G#|-11----11----11----11----|-11----11----11-12-12-12-|
C#|-------------------------|-------------------------|
      1  &  2  &  3  &  4  &    1  &  2  &  3  &  4  &
d#|-------------------------|-------------------------|
A#|-------------------------|-------------------------|
F#|-11----11----11----11----|-11----11----11-14-14-14-|
C#|--x-----x-----x-----x----|--x-----x-----x--x--x--x-|
G#|--9-----9-----9-----9----|--9-----9-----9-12-12-12-|
C#|-------------------------|-------------------------|
      1  &  2  &  3  &  4  &    1  &  2  &  3  &  4  &
d#|-------------------------|-------------------------|
A#|-------------------------|-------------------------|
F#|-13----13----13----13----|-18-18-18-18-16----------|
C#|--x-----x-----x-----x----|--x--x--x--x--x----------|
G#|-11----11----11----11----|-16-16-16-16-14----------|
C#|-------------------------|-------------------------|
      1  &  2  &  3  &  4  &    1  &  2  &  3  &  4  &

[Bridge]
(2:05) 
d#|-----------------|-----------------|-----------------|-----------------|
A#|-----------------|-------------0---|-------------0---|-----------------|
F#|-------9-----6---|-------9---------|-------9---------|-----------------| (x4)
C#|-----7-----------|-----7-----------|-----7-----------|---------7-------|
G#|-----------------|-----------------|-----------------|-----------------|
C#|-----------------|-----------------|-----------------|-----------------|
     1 & 2 & 3 & 4 &   1 & 2 & 3 & 4 &   1 & 2 & 3 & 4 &   1 & 2 & 3 & 4 &
        
[Solo pt. 1]
(2:27) 
d#|-------------------------|-------------------------|
A#|-------------------------|-------------------------|
F#|-------------------------|-------------------------|
C#|-------------------------|-------------------------|
G#|--7--9--9--9--9--9--9--9-|--7--9--9--9--9--9--9--9-|
C#|-------------------------|-------------------------|
      1  &  2  &  3  &  4  &    1  &  2  &  3  &  4  &                 (x2)
d#|-------------------------|-------------------------|
A#|-------------------------|-------------------------|
F#|-------------------------|-------------------------|
C#|-------------------------|-12-12-12-12-11-11-11-11-|
G#|--7--9--9--9--9--9--9--9-|-------------------------|
C#|-------------------------|-------------------------|
      1  &  2  &  3  &  4  &    1  &  2  &  3  &  4  &
         
[Solo pt. 2]
(2:38) 
d#|-------------------------|-------------------------|
A#|-------------------------|-------------------------|
F#|-------------------------|-------------------------|
C#|-14-14-14-14-14-14-14-14-|-12-12-12-12-12-12-12-12-|
G#|-------------------------|-------------------------|
C#|-------------------------|-------------------------|
      1  &  2  &  3  &  4  &    1  &  2  &  3  &  4  &
d#|-------------------------|-------------------------|
A#|-------------------------|-------------------------|
F#|-------------------------|-------------------------|
C#|-11-11-11-11-11-11-11-11-|--9--9--9--9--9--9--9--9-|
G#|-------------------------|-------------------------|
C#|-------------------------|-------------------------|
      1  &  2  &  3  &  4  &    1  &  2  &  3  &  4  &
d#|-------------------------|-------------------------|
A#|-------------------------|-------------------------|
F#|-------------------------|-------------------------|
C#|-14-14-14-14-14-14-14-14-|-16-16-16-16-16-16-16-16-|
G#|-------------------------|-------------------------|
C#|-------------------------|-------------------------|
      1  &  2  &  3  &  4  &    1  &  2  &  3  &  4  &
d#|-------------------------|-------------------------|
A#|-------------------------|-------------------------|
F#|-------------16-16-18-18-|-------------------------|
C#|-19-19-19-19-------------|-18-18-18-18-18----------|
G#|-------------------------|-------------------------|
C#|-------------------------|-------------------------|
      1  &  2  &  3  &  4  &    1  &  2  &  3  &  4  &
          
[Chorus pt. 1]
(2:55) 

[Chorus pt. 2]
(3:06) 
d#|-------------------------|-------------------------|
A#|-------------------------|-------------------------|
F#|-11----11----11----11----|-11----11----11-14-14-14-|
C#|--x-----x-----x-----x----|--x-----x-----x--x--x--x-|
G#|--9-----9-----9-----9----|--9-----9-----9-12-12-12-|
C#|-------------------------|-------------------------|
      1  &  2  &  3  &  4  &    1  &  2  &  3  &  4  &
d#|-------------------------|-------------------------|
A#|-------------------------|-------------------------|
F#|-13----13----13----13----|-13----13----13-14-14-14-|
C#|--x-----x-----x-----x----|--x-----x-----x--x--x--x-|
G#|-11----11----11----11----|-11----11----11-12-12-12-|
C#|-------------------------|-------------------------|
      1  &  2  &  3  &  4  &    1  &  2  &  3  &  4  &
d#|-------------------------|-------------------------|
A#|-------------------------|-------------------------|
F#|-11----11----11----11----|-11----11----11-14-14-14-|
C#|--x-----x-----x-----x----|--x-----x-----x--x--x--x-|
G#|--9-----9-----9-----9----|--9-----9-----9-12-12-12-|
C#|-------------------------|-------------------------|
      1  &  2  &  3  &  4  &    1  &  2  &  3  &  4  &
d#|-------------------------|-------------------------|
A#|-------------------------|-------------------------|
F#|-13----13----13----13----|-18-18-18-18-16----------|
C#|--x-----x-----x-----x----|--x--x--x--x--x----------|
G#|-11----11----11----11----|-16-16-16-16-14----------|
C#|-------------------------|-------------------------|
      1  &  2  &  3  &  4  &    1  &  2  &  3  &  4  &

[Post-Chorus]
(3:17) 
d#|-------------------------|-------------------------|
A#|-------------------------|-------------------------|
F#|-------------------------|-------------------------|
C#|--------------9-11--9-11-|-------------------------|
G#|-12-12----12-------------|-11-11----11-11-11----11-|
C#|-------------------------|-------------------------|
      1  &  2  &  3  &  4  &    1  &  2  &  3  &  4  &
d#|-------------------------|-------------------------|
A#|-------------------------|-------------------------|
F#|-------------------------|-------------------------|
C#|--------------9-11--9-11-|-------------------------|
G#|-12-12----12-------------|--9----9---9--9----------|
C#|-------------------------|-------------------------|
      1  &  2  &  3  &  4  &    1  &  2  &  3  &  4  &


***********************************

| /   Slide up
| x   Dead note

***********************************       

            
            
Suggest correction
Creating personal tab
Creating personal tab
You can edit any tab online and save it as your Personal.

You can edit, replace or remove any tab part or add personal notes – all changes will be seen only by you.

Personal tabs can be accessed anytime from any device, even offline.
Learn more »
comments
print report bad tab
102 comments total. Showing first comments.
+22 reply
klaghhf 117 Nov 23, 2007 05:52 PM

Wow, these tabs are awesome dude! Looks like you put some time into them, so I gave ya 5 stars. They're really accurate
aswell. Bravo! :)

+10 reply
new_slang 148 Nov 24, 2007 09:19 AM

THANK YOU SO MUCH!!!

+9 reply
Da_Bomb123 88 Nov 24, 2007 09:20 AM

you are AMAZINGGG i luv u so much for these tabs! :D

guest
You may want to rate the tab now too:
select rating
Wanna post a correction for this tab? Suggest correction