Oops, an error
Loading. Please wait.
We have an official Misery Business tab made by UG professional guitarists. Check out the tab »
×

Misery Business bass

3,318 views 18 this week
no commentswrite comment
1 2 3 4 5
x 4
add to favorites
×
Save as Personal and add changes to this tab that will be seen only by you. Learn more ›
×
You can save this tab as Personal to edit and correct it or add notes. All changes will be seen only by you. Learn more »
launch autoscroll
font size
0
reset
guitar tuner
backing track
0:00
0:00
edit
Autoscroll
slow
fast
+/-
esc
set tempo
stop
F#|------------------------------------------------|
C#|------------------------------------------------|
G#|-------4-----------------------4-----5-5--5-5-5-|
C#|-4---4----4--2---2-0--2--4---4----4-------------|

F#|----------------------------------------------------------|
C#|----------------------------------------------------------|
G#|-------4-----------------------4--------------------------|
C#|-4---4----4--2---2-0--2--4---4----4--7--7--6--6--4------4-|

0:14
F#|-----------------------------------------------------------------|
C#|-----------------------------------------------------------------|
G#|---------2-4-2-4-------------------------2-4-2-4-----------------|
C#|-4-4---4---------2-2---2-2-2---2-4-4---4---------0-0---0-0-0-----|

F#|-----------------------------------------------------------------|
C#|-----------------------------------------------------------------|
G#|---------2-4-2-4-------------------------2-4-2-4-----------------|
C#|-4-4---4---------2-2---2-2-2---2-4-4---4---------7-7-7-7-6-6-6-6-|

0:25
F#|-----------------------------------------------------------------|
C#|-----------------------------------------------------------------|
G#|---------2-4-2-4-------------------------2-4-2-4-----------------|
C#|-4-4---4---------2-2---2-2-2---2-4-4---4---------0-0---0-0-0-----|

F#|-----------------------------------------------------------------|
C#|-----------------------------------------------------------------|
G#|---------2-4-2-4-------------------------2-4-2-4-----------------|
C#|-4-4---4---------2-2---2-2-2---2-4-4---4---------7-7-7-7-6-6-6-6-|

0:35
F#|-----------------------------------------------------------------|
C#|-----------------------------------------------------------------|
G#|---------2-4-2-4-------------------------2-4-2-4-----------------|
C#|-4-4---4---------2-2---2-2-2---2-4-4---4---------0-0---0-0-0---0-|

F#|-----------------------------------------------------------------|
C#|-----------------------------------------------------------------|
G#|---------2-4-2-4-------------------------2-4-2-4-----------------|
C#|-4-4---4---------2-2---2-2-2---2-4-4---4---------7-7-7-7-6-6-6-6-|

0:47
F#|-------------------------------|
C#|-------------------------------|
G#|-------------------------------|
C#|-4-4-4-4-4-4-4-4-2-2-2-2-2-----|

0:49
F#|-----------------------------------------------------------------|
C#|-----------------------------------------------------------------|
G#|-----------0---------------7---------------2---------------------|
C#|-0---0---0---0-6-7---7---7---7---2---2---2---2---4-4-4-4-6-6-6-6-|

F#|-----------------------------------------------------------------|
C#|-----------------------------------------------------------------|
G#|-5---5---5-7-5-------------7---------------2---------------------|
C#|-----------------7---7---7---7---2---2---2---2---4-4-4-4-6-6-6-6-|

1:00
F#|-----------------------------------------------------------------|
C#|---------------------------7-------------------------------------|
G#|-5---5---5---5---5---5---5---5-5---------------------------------|
C#|---------------------------------2---2---2---2---2---2---2-4-4-4-|

F#|-----------------------------------------------------------------|
C#|-----------------------------------------------------------------|
G#|-5---5---5---5---5---5---5-0-0-0---------------------------------|
C#|---------------------------------2---2---2---2---7-7-7-7-6-------|

1:12
F#|-----------------------------------------------------------------|
C#|-----------------------------------------------------------------|
G#|---------2-4-2-4-------------------------2-4-2-4-----------------|
C#|-4-4---4---------2-2---2-2-2---2-4-4---4---------0---0---0-0-----|

1:18
F#|-----------------------------------------------------------------|
C#|-----------------------------------------------------------------|
G#|---------2-4-2-4-------------------------2-4-2-4-----------------|
C#|-4-4---4---------2-2---2-2-2---2-4-4---4---------0-0---0-0-0-----|

F#|-----------------------------------------------------------------|
C#|-----------------------------------------------------------------|
G#|---------2-4-2-4-------------------------2-4-2-4-----------------|
C#|-4-4---4---------2-2---2-2-2---2-4-4---4---------7-7-7-7-6-6-6-6-|

F#|-----------------------------------------------------------------|
C#|-----------------------------------------------------------------|
G#|---------2-4-2-4-------------------------2-4-2-4-----------------|
C#|-4-4---4---------2-2---2-2-2---2-4-4---4---------0-0---0-0-0---0-|

F#|-----------------------------------------------------------------|
C#|-----------------------------------------------------------------|
G#|---------2-4-2-4-------------------------2-4-2-4-----------------|
C#|-4-4---4---------2-2---2-2-2---2-4-4---4---------7-7-7-7-6-6-6-6-|

F#|-------------------------------|
C#|-------------------------------|
G#|-------------------------------|
C#|-4-4-4-4-4-4-4-4-2-2-2-2-2-----|

1:43
F#|-----------------------------------------------------------------|
C#|-----------------------------------------------------------------|
G#|-----------4-2-------------7---------------2---------------------|
C#|-0---0---0-----6-7---7---7---7---2---2---2---2---4-4-4-4-6-6-6-6-|

F#|-----------------------------------------------------------------|
C#|-----------------------------------------------------------------|
G#|-5---5---5-7-5-------------7---------------2---------------------|
C#|-----------------7---7---7---7---2---2---2---2---4-4-4-4-6-6-6-6-|

1:53
F#|-----------------------------------------------------------------|
C#|---------------------------7-------------------------------------|
G#|-5---5---5---5---5---5---5---5-5---------------------------------|
C#|---------------------------------2---2---2---2---2---2---2-4-4-4-|

F#|-----------------------------------------------------------------|
C#|-----------------------------------------------------------------|
G#|-5---5---5---5---5---5---5-0-0-0---------------------------------|
C#|---------------------------------2---2---2---2---7-7-7-7-6-------|

Rest

2:10
F#|----------------------------------------------------------------------|
C#|----------------------------------------------------------------------|
G#|-5--------------/12---12---12---12--/7---7---7---7---9---9---11---11--|
C#|----------------------------------------------------------------------|

F#|-----------------------------------------------------------------|
C#|-----------------------------------------------------------------|
G#|-5---5---5---5---------------------------------------------------|
C#|-----------------7---7---7---7---2---2---2---2---4---4---6---6---|

F#|-----------------------------------------------------------------|
C#|-----------------------------------------------------------------|
F#|-5--------------/12---12---12---12--\7---7---7---7---9-9-9-9-9---|
C#|-----------------------------------------------------------------|

2:26
F#|-----------------------------------------------------------------|
C#|-----------------------------------------------------------------|
G#|-5---5---5-7-5-2-0---0---0-7-0-------------2---------------------|
C#|---------------------------------2---2---2---2---4-4-4-4-6-6-6-6-|

F#|-----------------------------------------------------------------|
C#|-----------------------------------------------------------------|
G#|-5---5---5-7-5-------------7---------------2---------------------|
C#|-----------------7---7---7---7---2---2---2---2---4-4-4-4-6-6-6-6-|

2:37
F#|-------------------------------------------------------------------|
C#|-------------------------------------------------------------------|
G#|-5-5-5-5-5-5-5-5-5-5-5-5-5-5-0-0-0---------------------------------|
C#|-----------------------------------2-2-2-2-2-2-2-2-2-2-2-2-2-4-4-4-|

F#|-------------------------------------------------------------------|
C#|-------------------------------------------------------------------|
G#|-5-5-5-5-5-5-5-5-5-5-5-5-5-5-0-0-0---------------------------------|
C#|-----------------------------------2-2-2-2-2-2-2-2-7-7-7-7-6-------|

Rest

2:54
F#|-----------------------------------------------------------------|
C#|-----------------------------------------------------------------|
G#|-----------4-2-------------7---------------2---------------------|
C#|-0---0---0-----6-7---7---7---7---2---2---2---2---4-4-4-4-6-6-6-6-|

F#|-----------------------------------------------------------------|
C#|-----------------------------------------------------------------|
G#|-5---5---5-7-5-------------7---------------2---------------------|
C#|-----------------7---7---7---7---2---2---2---2---4-4-4-4-6-6-6-6-|

3:05
F#|-----------------------------------------------------------------|
C#|---------------------------7-------------------------------------|
G#|-5---5---5---5---5---5---5---5-5---------------------------------|
C#|---------------------------------2---2---2---2---2---2---2-4-4-4-|

F#|-----------------------------------------------------------------|
C#|-----------------------------------------------------------------|
G#|-5---5---5---5---5---5---5-0-0-0---------------------------------|
C#|---------------------------------2---2---2---2---7-7-7-7-6-------|

3:16
F#|-----------------------------------------------------------------|
C#|-----------------------------------------------------------------|
G#|---------2-4-2-4-------------------------2-4-2-4-----------------|
C#|-4-4---4---------2-2---2-2-2---2-4-4---4---------0-0---0-0-0-----|

F#|-----------------------------------------------------------------|
C#|-----------------------------------------------------------------|
G#|---------2-4-2-4-------------------------2-4-2-4-----------------|
C#|-4-4---4---------2-2---2-2-2---2-4-4---4---------0---0---0-0-----|
Tabbed by Dave Vucko
Suggest correction
Creating personal tab
Creating personal tab
You can edit any tab online and save it as your Personal.

You can edit, replace or remove any tab part or add personal notes – all changes will be seen only by you.

Personal tabs can be accessed anytime from any device, even offline.
Learn more »
comments
print report bad tab
guest
You may want to rate the tab now too:
select rating
Wanna post a correction for this tab? Suggest correction