Oops, an error
Loading. Please wait.
We have Chord Pro version of Misguided Ghosts.
It's the closest thing you can get to the original song and it has interactive parts. Check out the tab »
×

Misguided Ghosts tab

version 2
version 2

Whole song

458,445 views 501 this week
59 commentsread comments
1 2 3 4 5
x 251
add to favorites
×
Save as Personal and add changes to this tab that will be seen only by you. Learn more ›
×
You can save this tab as Personal to edit and correct it or add notes. All changes will be seen only by you. Learn more »
launch autoscroll
font size
0
reset
how to read this tab
guitar tuner
edit
Autoscroll
slow
fast
+/-
esc
set tempo
stop
Author
Misguided Ghosts

Tabbed by Blassassin

NOTE! This tab is well... Quite hard to match up to the song, not because
it's written badly, it's because it's hard to hear the rhythm guitar

I had to shut off the right speaker and the left speaker to isolate each guitar
It was tough

I worked pretty hard on this tab *Hint hint* Make the effort to try

P.S. I've gotta give it to EnProX, they've helped me improve this tab =D 


[INTRO] (0:02)

Guitar 1 (Lead, right speaker)

e|[--0-------3---]----------------------------------|
B|[1---1-1p0---0-]-x2 -----0---0h1-0-----0---0h1-3-1|
G|-----------------------0---0-------0--------------| x 2
D|-------------------------------------2---2--------|
A|--------------------------------------------------|
E|--------------------------------------------------|

Guitar 2 (Rhythm, left speaker)

e|-------------------------------|-----------------------------------|
B|-------------------------------|-----------------------------------|
G|----2-------2-------2-------2--|----0-------0-------0-------0------|
D|0h2---2-0h2---2-0h2---2-0h2---2|0h2---2-0h2---2-0h2---2-0h2---2----| x 2
A|-------------------------------|-----------------------------------|
E|-------------------------------|-----------------------------------|


[VERSE] (0:20)

Guitar 1 (Lead, right speaker)

e|[--0-------3---]----------------------------------|
B|[1---1-1p0---0-]-x2 -----0---0h1-0-----0---0h1-3-1|
G|-----------------------0---0-------0--------------| x 2
D|-------------------------------------2---2--------|
A|--------------------------------------------------|
E|--------------------------------------------------|

Guitar 2 (Rhythm, left speaker)

e|-------------------------------|-----------------------------------|
B|-------------------------------|-----------------------------------|
G|----2-------2-------2-------2--|----0-------0-------0-------0------|
D|0h2---2-0h2---2-0h2---2-0h2---2|0h2---2-0h2---2-0h2---2-0h2---2----| x 2
A|-------------------------------|-----------------------------------|
E|-------------------------------|-----------------------------------|


[BRIDGE] (0:38)

Guitar 1 (Lead, right speaker)

e|12----12-12----12-10----10-10----10-8---8-8---8-10---10-7---7-|
B|---13-------13-------12-------12------8-----8------8------8---|
G|--------------------------------------------------------------|
D|--------------------------------------------------------------|
A|--------------------------------------------------------------|
E|--------------------------------------------------------------|

e|12----12-12----12-10----10-10----10-8---8-8---8-10---10-7~----|
B|---13-------13-------12-------12------8-----8------8----------|
G|--------------------------------------------------------------|
D|--------------------------------------------------------------|
A|--------------------------------------------------------------|
E|--------------------------------------------------------------|

Guitar 2 (Rhythm, left speaker)

e|-----------------------------------------------------------3------3------|
B|----1---------1---------------1~------------1------1---------1------1----|
G|------0---------0-------0--------0------2-2---2-2~---2-0-0-----0~--------|
D|--------2---------2-------2--------2-------------------------------------|
A|0-0-------0-0-------3-3-----3--------3-----------------------------------|
E|-------------------------------------------------------------------------|

e|----0---------0---------0---------0------------------------3-------------|
B|------1---------1---------3---------3-------1------1---------1-0~--------|
G|--------0---------0---------0---------0-2-2---2-2~---2-0-0---------------|
D|-------------------------------------------------------------------------|
A|0-0-------0-0-------3-3-------3-3----------------------------------------|
E|-------------------------------------------------------------------------|


[CHORUS] (0:57)

Guitar 1 (Right speaker)

e|-----------------------------------------|
B|-5-3-7-8~~--5-3-0-1~--5-3-7-9~~--5-3-0---|
G|-5-4-7-9~~--5-4-0-2~--5-4-7-9~~--5-4-0---|
D|-7-5-9-10~--7-5-2-3~--7-5-9-10~--7-5-2---|
A|-7-5-9-10~--7-5-2-3~--7-5-9-10~--7-5-2---|
E|-5-3-7-8~~--5-3-0-1~--5-3-7-8~~--5-3-0---|

Guitar 2 (Left Speaker)

e|-----------0---------0---------0-----------------------------------------------|
B|-------1-1---1---1-1---1---1-1---1---------------------------------------------|
G|-5-4-7---------0---------0---------0--5-4-0-----2--------2--------2------------|
D|-7-5-9--------------------------------7-5-2-3-3---3--3-3---3--3-3---3----------|
A|-7-5-9--------------------------------7-5-2------------------------------------|
E|-5-3-7--------------------------------5-3-0------------------------------------|

e|-----------0---------0---------0------------|
B|-------1-1---1---1-1---1---1-1---1----------|
G|-5-4-7---------0---------0---------0--5-4-0-|
D|-7-5-9--------------------------------7-5-2-|
A|-7-5-9--------------------------------7-5-2-|
E|-5-3-7--------------------------------5-3-0-|


[VERSE] (1:14)

Guitar 1 (Lead, right speaker)

e|[--0-------3---]----------------------------------|
B|[1---1-1p0---0-]-x2 -----0---0h1-0-----0---0h1-3-1|
G|-----------------------0---0-------0--------------| x 3
D|-------------------------------------2---2--------|
A|--------------------------------------------------|
E|--------------------------------------------------|

Guitar 2 (Rhythm, left speaker)

e|-------------------------------|-----------------------------------|
B|-------------------------------|-----------------------------------|
G|----2-------2-------2-------2--|----0-------0-------0-------0------|
D|0h2---2-0h2---2-0h2---2-0h2---2|0h2---2-0h2---2-0h2---2-0h2---2----| x 3
A|-------------------------------|-----------------------------------|
E|-------------------------------|-----------------------------------|


[BRIDGE] (1:41)

Guitar 1 (Lead, right speaker)

e|12----12-12----12-10----10-10----10-8---8-8---8-10---10-7---7-|
B|---13-------13-------12-------12------8-----8------8------8---|
G|--------------------------------------------------------------|
D|--------------------------------------------------------------|
A|--------------------------------------------------------------|
E|--------------------------------------------------------------|

e|12----12-12----12-10----10-10----10-8---8-8---8-10---10-7~----|
B|---13-------13-------12-------12------8-----8------8----------|
G|--------------------------------------------------------------|
D|--------------------------------------------------------------|
A|--------------------------------------------------------------|
E|--------------------------------------------------------------|

Guitar 2 (Rhythm, left speaker)

e|-----------------------------------------------------------3------3------|
B|----1---------1---------------1~------------1------1---------1------1----|
G|------0---------0-------0--------0------2-2---2-2~---2-0-0-----0~--------|
D|--------2---------2-------2--------2-------------------------------------|
A|0-0-------0-0-------3-3-----3--------3-----------------------------------|
E|-------------------------------------------------------------------------|

e|----0---------0---------0---------0------------------------3-------------|
B|------1---------1---------3---------3-------1------1---------1-0~--------|
G|--------0---------0---------0---------0-2-2---2-2~---2-0-0---------------|
D|-------------------------------------------------------------------------|
A|0-0-------0-0-------3-3-------3-3----------------------------------------|
E|-------------------------------------------------------------------------|


[CHORUS] (1:58)

Guitar 1 (Right speaker)

e|-------------------------------------------|
B|-5-3-7-8~~--5-3-0-1~--5-3-7-9~~--5-3-0-1~--|
G|-5-4-7-9~~--5-4-0-2~--5-4-7-9~~--5-4-0-2~--|
D|-7-5-9-10~--7-5-2-3~--7-5-9-10~--7-5-2-3~--|
A|-7-5-9-10~--7-5-2-3~--7-5-9-10~--7-5-2-3~--|
E|-5-3-7-8~~--5-3-0-1~--5-3-7-8~~--5-3-0-1~--|

e|----------------------------------------------|
B|-5-3-8-8~~--5-3-0-1~--5-3-8-9~~--5-3-7--------|
G|-5-4-8-9~~--5-4-0-2~--5-4-8-9~~--5-4-7-9--10--|
D|-7-5-9-10~--7-5-2-3~--7-5-9-10~--7-5-9-10-12--|
A|-7-5-9-10~--7-5-2-3~--7-5-9-10~--7-5-9-10-12--|
E|-5-3-7-8~~--5-3-0-1~--5-3-7-8~~--5-3-7-8--10--|

Guitar 2 (Left Speaker)

e|-----------0---------0---------0-----------------------------------------------|
B|-------1-1---1---1-1---1---1-1---1---------------------------------------------|
G|-5-4-7---------0---------0---------0--5-4-0-----2--------2--------2------------|
D|-7-5-9--------------------------------7-5-2-3-3---3--3-3---3--3-3---3----------|
A|-7-5-9--------------------------------7-5-2------------------------------------|
E|-5-3-7--------------------------------5-3-0------------------------------------|

e|-----------0---------0---------0------------|
B|-------1-1---1---1-1---1---1-1---1----------|
G|-5-4-7---------0---------0---------0--5-4-0-|
D|-7-5-9--------------------------------7-5-2-|
A|-7-5-9--------------------------------7-5-2-|
E|-5-3-7--------------------------------5-3-0-|

e|-----------0---------0---------0-----------------------------------------------|
B|-------1-1---1---1-1---1---1-1---1---------------------------------------------|
G|-5-4-7---------0---------0---------0--5-4-0-----2--------2--------2------------|
D|-7-5-9--------------------------------7-5-2-3-3---3--3-3---3--3-3---3----------|
A|-7-5-9--------------------------------7-5-2------------------------------------|
E|-5-3-7--------------------------------5-3-0------------------------------------|

e|-----------0---------0---------0-----------------|
B|-------1-1---1---1h3---3p0--1-1--1---------------|
G|-5-4-7---------0-------------------0--5-4-7-9--10|
D|-7-5-9--------------------------------7-5-9-10-12|
A|-7-5-9--------------------------------7-5-9-10-12|
E|-5-3-7--------------------------------5-3-7-8--10|


[OUTRO]

Guitar 1 (Lead, right speaker)

e|[--0-------3---]----------------------------------|
B|[1---1-1p0---0-]-x2 -----0---0h1-0-----0---0h1-3-1|
G|-----------------------0---0-------0--------------| x 2
D|-------------------------------------2---2--------|
A|--------------------------------------------------|
E|--------------------------------------------------|

e|[--0-------3---]-------------------------------------3~|
B|[1---1-1p0---0-]-x2 -----0---0h1-0-----0---0h1-3-1---0~|
G|-----------------------0---0-------0-------------------|
D|-------------------------------------2---2-------------|
A|-------------------------------------------------------|
E|-------------------------------------------------------|

Guitar 2 (Rhythm, left speaker)

e|-------------------------------|-----------------------------------|
B|-------------------------------|-----------------------------------|
G|----2-------2-------2-------2--|----0-------0-------0-------0------|
D|0h2---2-0h2---2-0h2---2-0h2---2|0h2---2-0h2---2-0h2---2-0h2---2----| 
A|-------------------------------|-----------------------------------|
E|-------------------------------|-----------------------------------|

Guitar 2 (Rhythm, left speaker)

e|-------------------------------|------------------------------------|
B|-------------------------------|------------------------------------|
G|----2-------2-------2-------2--|----0-------0-------0-------0-----2~|
D|0h2---2-0h2---2-0h2---2-0h2---2|0h2---2-0h2---2-0h2---2-0h2---2-----|
A|-------------------------------|------------------------------------|
E|-------------------------------|------------------------------------|

If you made it this far, well done =D

RATINGS AND COMMENTS ARE WELCOMED! =D
Suggest correction
Creating personal tab
Creating personal tab
You can edit any tab online and save it as your Personal.

You can edit, replace or remove any tab part or add personal notes – all changes will be seen only by you.

Personal tabs can be accessed anytime from any device, even offline.
Learn more »
comments
print report bad tab
59 comments total. Showing first comments.
+3 reply
juavma 41 Oct 02, 2009 06:44 PM

great tab dude i love it. having lot of fun to pick this.

0 reply
Blassassin 209 Oct 03, 2009 07:15 AM

Thanks =]

0 reply
thatweirdkid 41 Oct 03, 2009 09:26 AM

perfect, thanks. ^.^

guest
You may want to rate the tab now too:
select rating
Wanna post a correction for this tab? Suggest correction