Oops, an error
Loading. Please wait.
We have Chord Pro version of Misguided Ghosts.
It's the closest thing you can get to the original song and it has interactive parts. Check out the tab »
×

Misguided Ghosts tab

version 3
version 3

Whole song

103,224 views 117 this week
11 commentsread comments
1 2 3 4 5
x 39
add to favorites
×
Save as Personal and add changes to this tab that will be seen only by you. Learn more ›
×
You can save this tab as Personal to edit and correct it or add notes. All changes will be seen only by you. Learn more »
launch autoscroll
font size
0
reset
how to read this tab
guitar tuner
edit
Autoscroll
slow
fast
+/-
esc
set tempo
stop
Author
Tabbers playing skills
advanced +
PLS LIKE OUR BAND FAN PAGE @ FACEBOOK - https://www.facebook.com/SinceAstrid

Tabbed By Francis Twister
From Paramore Philippines(PARAWHORE)

Tuning - STANDARD

Intro-
GtrI
|-------------------|-------------------|----------------------------------|
|-------------------|-------------------|----------------------------------|
|----9---------12---|----9---------12---|----------------------------------|
|-10---10-10p9----9-|-10---10-10p9----9-|----9----9h10-9-------9---9h10-12-|2x
|-------------------|-------------------|-10---10--------10----------------|
|-------------------|-------------------|-------------------12---12--------|

GtrII
(-------------2x------------)
|-------------|-------------|------------|------------|--------------------------|
|-------------|-------------|------------|------------|-------0------------------|
|-------2-----|-------2-----|-------0----|------0-----|---------0---------0------|
|-0h2-----2p0-|-0-------0---|-0h2----2p0-|-0------0---|--2--------2--0h2----2p0--|2x
|-------------|-------------|------------|------------|--------------------------|
|-1---1-----1-|-1-(1)-----1-|-3---3----3-|-3-(3)----3-|--0--0--------0--------0--|

Verse-
GtrI
|-------------------|-------------------|----------------------------------|
|-------------------|-------------------|----------------------------------|
|----9---------12---|----9---------12---|----------------------------------|
|-10---10-10p9----9-|-10---10-10p9----9-|----9----9h10-9-------9---9h10-12-|2x
|-------------------|-------------------|-10---10--------10----------------|
|-------------------|-------------------|-------------------12---12--------|

GtrII
(-------------2x------------)
|-------------|-------------|------------|------------|--------------------------|
|-------------|-------------|------------|------------|-------0------------------|
|-------2-----|-------2-----|-------0----|------0-----|---------0---------0------|
|-0h2-----2p0-|-0-------0---|-0h2----2p0-|-0------0---|--2--------2--0h2----2p0--|2x
|-------------|-------------|------------|------------|--------------------------|
|-1---1-----1-|-1-(1)-----1-|-3---3----3-|-3-(3)----3-|--0--0--------0--------0--|

Refrain-
GtrI
|-12----12-----12----12---|-10----10---10----10---|-8-----8---8-----8--|-10----10---7-----7--|
|----13------------13-----|----12----------12-----|----10--------10----|---------------8-----|
|-12-----------12---------|-12---------12---------|-10--------10-------|-12--12-----9--------|
|-------------------------|-----------------------|--------------------|---------------------|
|-------------------------|-----------------------|--------------------|---------------------|
|-------------------------|-----------------------|--------------------|---------------------|
GtrII
|-------------------------|-----------------------|---------------------|------3--------------|
|-1----1------1---1-------|------------1----------|-----1----------1----|-3-----3--0----0-----|
|--------2----------2-----|-----0----------0------|-2-----2---2------2--|-------------0-------|
|---------2-----------2---|-2-----2----------2----|---------3---------3-|---------------------|
|-0-0---------0-0---------|---------3--3------3---|---------------------|---------------------|
|-------------------------|-0-0----------0--------|-1-1-------1-(1)-----|-3--3-----0----------|

GtrI
|-12----12-----12----12---|-10----10---10----10---|-8-----8---8-----8--|-10----10---7~-------|
|----13------------13-----|----12----------12-----|----10--------10----|------------8~-------|
|-12-----------12---------|-12---------12---------|-10--------10-------|-12--12-----9~-------|
|-------------------------|-----------------------|--------------------|---------------------|
|-------------------------|-----------------------|--------------------|---------------------|
|-------------------------|-----------------------|--------------------|---------------------|
GtrII
|------0----------0-------|-----0----------0------|--------------------|------3--------------|
|-1------1----1-----1-----|-------3----------3----|-----1---------1----|-3------3---0~-------|
|-------------------------|-----------------------|-2-----2---2-----2--|------------0~-------|
|-------------------------|-----------------------|--------------------|---------------------|
|-0-0------0--0-0-----0---|-----------------------|--------------------|---------------------|
|-------------------------|-0-0-----0--0-0------0-|-1-1-----1-1-1----1-|-3----------0~-------|

Chorus-
GtrI
|-----3-----------------------------------------------------------|
|-5-3-3-1~---------------------5-3-7-1~---------------------------|
|-5-4---0~---------------------5-4-9-2~---------------------------|
|-7-5---2~---------------------7-5---3~---------------------------|
|-----2-3~-------------------------7-3----------------------------|
|-----------------------------------------------------------------|

GtrII
|-----------------------------------------------------------------------|
|-5-3-8----------------------------5-3-0--------------------------------|
|-5-4-7-----9--------9-------9-----5-4-0------2---------2---------2-----|
|---------10-10----10-10---10-10-------2-0h2----2p0---2---2---2-----2---|
|--------------------------------------2--------------------------------|
|-5-3-7-8-------88-------88------8-5-3-0-1---1----1---1----1--1-1-----1-|

GtrI
|-----3-----------------------------------------------------------|
|-5-3-3-1~---------------------5-3-7------------------------------|
|-5-4---0~---------------------5-4-9------------------------------|
|-7-5---2~---------------------7-5--------------------------------|
|-----2-3~-------------------------7------------------------------|
|-----------------------------------------------------------------|
GtrII
|----------------------------------------|
|-5-3-8----------------------------5-3-0-|
|-5-4-7-----9--------9-------9-----5-4-0-|
|---------10-10----10-10---10-10-------2-|
|--------------------------------------2-|
|-5-3-7-8-------88-------88------8-5-3-0-|



Do Verse-Refrain


DO Chorus-
GtrI
|-----3-----------------------------------------------------------|
|-5-3-3-1~---------------------5-3-7-1~---------------------------|
|-5-4---0~---------------------5-4-9-2~---------------------------|
|-7-5---2~---------------------7-5---3~---------------------------|3x
|-----2-3~-------------------------7-3~---------------------------|
|-----------------------------------------------------------------|

GtrII
|-----------------------------------------------------------------------|
|-5-3-8----------------------------5-3-0--------------------------------|
|-5-4-7-----9--------9-------9-----5-4-0------2---------2---------2-----|
|---------10-10----10-10---10-10-------2-0h2----2p0---2---2---2-----2---|3x
|--------------------------------------2--------------------------------|
|-5-3-7-8-------88-------88------8-5-3-0-1---1----1---1----1--1-1-----1-|


then

GtrI
|-----3-----------------------------------------------------------|
|-5-3-3-1~-----------------------5-3-3-5-6------------------------|
|-5-4---0~-----------------------5-4-4-5-7------------------------|
|-7-5---2~-----------------------7-5-4-5-7------------------------|
|-----2-3~-----------------------7-5-2-3-5------------------------|
|-----------------------------------------------------------------|

GtrII
|------------------------------------------------|
|-5-3-8---------------------------5-3-7--8--10---|
|-5-4-7-----9----7--9-------9-----5-4-7--9--10---|
|---------10-10-----------10-10------------------|
|------------------------------------------------|
|-5-3-7-8-------8--------8--------5-3-7--8--10---|


Do Verse-

end
GtrI
|--3~--------|
|--5~--------|
|--5~--------|
|------------|
|------------|
|------------|

GtrII
|------------|
|------------|
|--2~--------|
|------------|
|--0~--------|
|------------|

            
            
Suggest correction
Creating personal tab
Creating personal tab
You can edit any tab online and save it as your Personal.

You can edit, replace or remove any tab part or add personal notes – all changes will be seen only by you.

Personal tabs can be accessed anytime from any device, even offline.
Learn more »
comments
print report bad tab
11 comments total. Showing first comments.
+4 reply
harstar 10 Oct 26, 2009 01:09 PM

m8 this tab is good, i don't know why it hasn't got more votes!

+2 reply
doobidoo 6,271 Oct 27, 2009 10:36 PM

UpDATed today: I based this updated tab version on their live:...i think it's better than the others:)

+3 reply
PlaneCrashDream 30 Nov 07, 2009 04:26 AM

um i think in the verses and intro instead of playing 12 on the E string, i do it it 7 on the A string, and i watched the video and i'm pretty sure thats what josh does as well ^^

but the chorus. . .???
but other than that great job

guest
You may want to rate the tab now too:
select rating
Wanna post a correction for this tab? Suggest correction