Oops, an error
Loading. Please wait.
We have Chord Pro version of Misguided Ghosts.
It's the closest thing you can get to the original song and it has interactive parts. Check out the tab »
×

Misguided Ghosts tab

version 8
version 8

Whole song

61 views 18 this week
no commentswrite comment
1 2 3 4 5
3 more votes to show rating
add to favorites
×
Save as Personal and add changes to this tab that will be seen only by you. Learn more ›
×
You can save this tab as Personal to edit and correct it or add notes. All changes will be seen only by you. Learn more »
launch autoscroll
font size
0
reset
how to read this tab
guitar tuner
edit
Autoscroll
slow
fast
+/-
esc
set tempo
stop
About this tab version
This is an arrangement intended to be fingerpicked, which combines the lead and rhythm guitar parts of the original song. For the pre-chorus parts of the song I have simplified the tab to make it doable, by bringing the original lead part down an octave and mostly losing the rhythm part (except for the bass). The rest of the song is mostly true to the original, but simply adapted to be played on one guitar instead of two. Was this info helpful? Yes No
Misguided Ghosts Fingerpicking Arrangement (solo guitar)

[Intro]
e|-------0-----------3-----------0-----------3-------------------------------------------------------|
B|--1--------1--1p0------0--1--------1--1p0------0-------0------0h1--0-----------0------0h1--3---1---|
G|-------2-----------2-----------2-----------2------0----0---0-------0------0----0---0-------0-------|
D|--0h2------2--0h2------2--0h2------2--0h2------2--0h2------2--0h2----2----0h2------2--0h2------2---|
A|---------------------------------------------------------------------------------------------------|
E|--1--1---1----1--1---1----1--1---1----1--1---1----3--3---3----3--3---3----0--0---0----0--0---0-----| X2

[Verse 1]
e|-------0-----------3-----------0-----------3-------------------------------------------------------|
B|--1--------1--1p0------0--1--------1--1p0------0-------0------0h1--0-----------0------0h1--3---1---|
G|-------2-----------2-----------2-----------2------0----0---0-------0------0----0---0-------0-------|
D|--0h2------2--0h2------2--0h2------2--0h2------2--0h2------2--0h2----2----0h2------2--0h2------2---|
A|---------------------------------------------------------------------------------------------------|
E|--1--1---1----1--1---1----1--1---1----1--1---1----3--3---3----3--3---3----0--0---0----0--0---0-----| X2

[Pre-chorus 1]
e|--0------0----0------0-----------------------------------------------------------------------------|
B|-------1-----------1------3------3----3------3----1------1----1------1----3------3----0------0-----|
G|--0-----------0----------------4-----------4-----------0-----------0-----------0-------------------|
D|--------------------------5-----------5-----------2-----------2-----------0-----------0----0-------|
A|--0--0-----0--0--0-----0--3--3-----3--3--3---------------------------------------------------------|
E|--------------------------------------------------1--1-----1--1--1-----1--3--3-----3--0--0-----0---|

e|--0------0----0------0----------------------------------------------------------------------|
B|-------1-----------1------3------3----3------3----1------1----1------1----3------3----0~~---|
G|--0-----------0----------------4-----------4-----------0-----------0-----------0------0~~---|
D|--------------------------5-----------5-----------2-----------2-----------0-----------0~~---|
A|--0--0-----0--0--0-----0--3--3-----3--3--3--------------------------------------------------|
E|--------------------------------------------------1--1-----1--1--1-----1--3--3-----3--3~~---|

[Chorus 1]
e|------------------------------------------------|----------------------------------------------------|
B|------------------------------------------------|----------------------------------------------------|
G|--5---4---7----9----9-----9---9-----9---9-------|--5---4---0---------2-----------2-----------2-------|
D|--7---5---9----10-----10--10----10--10----10----|--7---5---2----0h2------2--0h2------2--0h2------2---|
A|--7---5---8----10-------------------------------|--7---5---2-----------------------------------------|
E|----5---3---7--8--8-----8---8-----8---8-----8---|----5---3---0--1--1---1----1--1---1----1--1---1-----|

e|------------------------------------------------|----------------|
B|------------------------------------------------|----------------|
G|--5---4---7----9----9-----9---9-----9---9-------|--5---4---0-----|
D|--7---5---9----10-----10--10----10--10----10----|--7---5---2-----|
A|--7---5---8----10-------------------------------|--7---5---2-----|
E|----5---3---7--8--8-----8---8-----8---8-----8---|----5---3---0---|

[Verse 2]
e|-------0-----------3-----------0-----------3-------------------------------------------------------|
B|--1--------1--1p0------0--1--------1--1p0------0-------0------0h1--0-----------0------0h1--3---1---|
G|-------2-----------2-----------2-----------2------0----0---0-------0------0----0---0-------0-------|
D|--0h2------2--0h2------2--0h2------2--0h2------2--0h2------2--0h2----2----0h2------2--0h2------2---|
A|---------------------------------------------------------------------------------------------------|
E|--1--1---1----1--1---1----1--1---1----1--1---1----3--3---3----3--3---3----0--0---0----0--0---0-----| X3

[Pre-chorus 2]
e|--0------0----0------0-----------------------------------------------------------------------------|
B|-------1-----------1------3------3----3------3----1------1----1------1----3------3----0------0-----|
G|--0-----------0----------------4-----------4-----------0-----------0-----------0-------------------|
D|--------------------------5-----------5-----------2-----------2-----------0-----------0----0-------|
A|--0--0-----0--0--0-----0--3--3-----3--3--3---------------------------------------------------------|
E|--------------------------------------------------1--1-----1--1--1-----1--3--3-----3--0--0-----0---|

e|--0------0----0------0----------------------------------------------------------------------|
B|-------1-----------1------3------3----3------3----1------1----1------1----3------3----0~~---|
G|--0-----------0----------------4-----------4-----------0-----------0-----------0------0~~---|
D|--------------------------5-----------5-----------2-----------2-----------0-----------0~~---|
A|--0--0-----0--0--0-----0--3--3-----3--3--3--------------------------------------------------|
E|--------------------------------------------------1--1-----1--1--1-----1--3--3-----3--3~~---|

[Chorus 2]
e|------------------------------------------------|----------------------------------------------------|
B|------------------------------------------------|----------------------------------------------------|
G|--5---4---7----9----9-----9---9-----9---9-------|--5---4---0---------2-----------2-----------2-------|
D|--7---5---9----10-----10--10----10--10----10----|--7---5---2----0h2------2--0h2------2--0h2------2---|
A|--7---5---8----10-------------------------------|--7---5---2-----------------------------------------|
E|----5---3---7--8--8-----8---8-----8---8-----8---|----5---3---0--1--1---1----1--1---1----1--1---1-----| X3

e|------------------------------------------------|-------------------------|
B|------------------------------------------------|-------------------------|
G|--5---4---7----9----9-----9---9-----9---9-------|--5---4---7---9---10-----|
D|--7---5---9----10-----10--10----10--10----10----|--7---5---9---10--12-----|
A|--7---5---8----10-------------------------------|--7---5---8---10--12-----|
E|----5---3---7--8--8-----8---8-----8---8-----8---|----5---3---7---8---10---|

[Outro]
e|-------0-----------3-----------0-----------3-------------------------------------------------------|
B|--1--------1--1p0------0--1--------1--1p0------0-------0------0h1--0-----------0------0h1--3---1---|
G|-------2-----------2-----------2-----------2------0----0---0-------0------0----0---0-------0-------|
D|--0h2------2--0h2------2--0h2------2--0h2------2--0h2------2--0h2----2----0h2------2--0h2------2---|
A|---------------------------------------------------------------------------------------------------|
E|--1--1---1----1--1---1----1--1---1----1--1---1----3--3---3----3--3---3----0--0---0----0--0---0-----|

(slowing down for this last bar)
e|-------0-----------3-----------0-----------3------------------------------------------------------3~~---|
B|--1--------1--1p0------0--1--------1--1p0------0-------0------0h1--0-----------0------0h1--3---1--------|
G|-------2-----------2-----------2-----------2------0----0---0-------0------0----0---0-------0------2~~---|
D|--0h2------2--0h2------2--0h2------2--0h2------2--0h2------2--0h2----2----0h2------2--0h2------2--------|
A|--------------------------------------------------------------------------------------------------------|
E|--1--1---1----1--1---1----1--1---1----1--1---1----3--3---3----3--3---3----0--0---0----0--0---0----1~~---|



************************************

| h  Hammer-on
| p  Pull-off
| ~  Vibrato

************************************

            
            
Suggest correction
Creating personal tab
Creating personal tab
You can edit any tab online and save it as your Personal.

You can edit, replace or remove any tab part or add personal notes – all changes will be seen only by you.

Personal tabs can be accessed anytime from any device, even offline.
Learn more »
Give kudos to tab author, rate the tab!
1 2 3 4 5
comments
print report bad tab
guest
You may want to rate the tab now too:
select rating
Wanna post a correction for this tab? Suggest correction