Oops, an error
Loading. Please wait.

Monster Bass Tab

version 4
version 4
977 views 1 this week
no commentswrite comment
1 2 3 4 5
please rate
add to favorites
launch autoscroll
font size
0
reset
guitar tuner
Autoscroll
slow
fast
+/-
esc
set tempo
stop
Help us to improve Ultimate-Guitar.com Take our survey!
×
Author
Difficulty
intermediate
Monster, by Paramore



Tuning: 5 String Standard (BEADG)


Verse 1:

G -------------------------------|
D -------------------------------|
A -----------------3-3--3/5-5--7-|
E -5-3--5-7-0----0---------------|
B -------------------------------| x3

G -------------------------------|
D -------------------------------|
A -----------------3-3--3-5-5----|
E -5-3--5-7-0----0---------------|
B -------------------------------|


Pre-Chorus:

G --------------|
D --------------|
A --------------|
E -0-0----0-0-0-|
B --------------|


Chorus:

G -------------------------------|-------------------------------|
D -------------------------------|-------------------------------|
A -------------------------------|-------------------------------|
E -------------------------------|-------------------------------|
B -1-------------5-------3-------|-1-------------5-------3-------|

G -------------------------------|-------------------------------|
D -------------------------------|-------------------------------|
A -------------------------------|-------------------------------|
E -------------------------------|-------------------------------|
B -1-------------8-------3-------|-1------3----------------------|


Verse 2:

G -------------------------------|
D -------------------------------|
A -----------------3-3--3/5-5--7-|
E -5-3--5-7-0----0---------------|
B -------------------------------| x3

G -------------------------------|
D -------------------------------|
A -----------------3-3--3-5-5----|
E -5-3--5-7-0----0---------------|
B -------------------------------|

G -----------7-------------------|-----------------------­-------|
D -----97579---------------------|-------------------------------|
A -5/7-------------3-3--3/5-5--7-|-----------------3-3--3/5-5----|
E -------------------------------|-5-3--5-7-0----0---------------|
B -------------------------------|-------------------------------|


[Pre-Chorus]


[Chorus]


Bridge:

G -------------------------------|-------------------------------|
D -------------------------------|-------------------------------|
A -------------------------------|-------------------------------|
E -------------------------------|-------------------------------|
B -5-5-5-/8---3-3-3-/7-----------|-1-----------------------------| x2

G -------------------------------|-------------------------------|-------------------------------|
D -------------------------------|-------------------------------|-------------------------------|
A -------------------------------|-------------------------------|-------------------------------|
E -5------7------8---------------|-5------7------8------8--------|-------------------------------|
B ----------------------8--8-----|-------------------------------|-3-----------------------------|


[Pre-Chorus] x2


[Chorus] x2


Tabbed by KillerQueen92
Suggest correction
What's this?
You can suggest a correction to this tab. Community and Mods will review your correction and vote to approve or reject it.
comments
We did not receive enough feedback on this tab! Please rate:
print report bad tab
1 2 3 4 5
guest
You may want to rate the tab now too:
select rating
Please do not post tabs as comments. Select "correction" instead!