Oops, an error
Loading. Please wait.
We have an official My Heart tab made by UG professional guitarists. Check out the tab »
×
40,547 views 39 this week
4 commentsread comments
1 2 3 4 5
x 12
add to favorites
×
Save as Personal and add changes to this tab that will be seen only by you. Learn more ›
×
You can save this tab as Personal to edit and correct it or add notes. All changes will be seen only by you. Learn more »
launch autoscroll
font size
0
reset
guitar tuner
edit
Autoscroll
slow
fast
+/-
esc
set tempo
stop
Author
Song: My Heart
Artist: Paramore
Tabbed by: Valerie L.
e-mail: iloled@yahoo.com

Intro                                         
G|-----------------------------------------------------|   
D|-----------------------------------------------------|  
A|-----------------------------------------------------|  
E|-00000000444-55555555-777-999999-444444-5555555555555|

G|-------------------------------------------|   
D|-------------------------------------------|  
A|-------------------------------------------|  
E|-00000000444-55555555-777-999999-444444-5~-|
 
Verse "I am finding out..."
G|---------------------------------------------------------------|
D|---------------7-6---------------------------------------------|
A|-------------7-----7-------------------------------------------|
E|-9~--7~--5~----------9~--7~--5~-45--9~--7~--5~-4-5--9~--7~--5~-|

Chorus
G|--------------------------------------------------------|
D|--------------------------------------------------------|
A|--------------------------------------------------------|
E|-000000000-444-555555555-777-999999-444444-555555555555-|

G|----------------------------------------------|
D|----------------------------------------------|
A|----------------------------------------------|
E|-000000000-444-555555555-777-999999-444444-5~-|

Verse "I am nothing now..."
G|-------6~--------------------------|   
D|-----7------9----7---7-6-----------|  
A|-7h9------7----7---7-----7---------|  
E|---------------------------7~--4-5-|

Pre-Chorus
G|-------------------------------------------------|   
D|-------------------------------------------------|  
A|-------------------------------7-----------------|  
E|-999999-7777777-555555-4--5--9----7--4--5-555555-|

Chorus x1

Bridge (2:18) "This heart...it beats.."
G|---6~-----------------------6~---------------| |----------------|
D|-7-----9----67----7-4/99999-----976-----76~--| |----------------|
A|---------7~-----7-------------------7~-------| |----------------|
E|---------------------------------------------| |--555555-777777-|

G|------------------------------------------------------|   
D|------------------------------------------------------|  
A|------------------------------------------------------|  
E|-9-99-99-9-97--0-00-00-4445-5-55-5-5555-555-55-5-7-777| x3

G|-----------------------------------------------------|   
D|-----------------------------------------------------|  
A|-----------------------------------------------------|  
E|-9999999999-0000000000-444-555555555555555555-777777-| x2

            
            
Suggest correction
Creating personal tab
Creating personal tab
You can edit any tab online and save it as your Personal.

You can edit, replace or remove any tab part or add personal notes – all changes will be seen only by you.

Personal tabs can be accessed anytime from any device, even offline.
Learn more »
comments
print report bad tab
4 comments total. Showing first comments.
+2 reply
ryanweggler 10 Apr 10, 2007 06:02 PM

Sweeeet.

+4 reply
Ericman92 62 Sep 29, 2008 07:27 PM

(screaming) "YYAAAAAAAAAAA! ....... MY HEART IT BEATS FOR YOU!!! IT BEATS!!! BEATS FOR ONLY YOU!!! MY HEART!!!"

absolutely amazing song... love how it flows from a softer song to a hardcore at the end.

0 reply
musefanatic 10 Nov 27, 2008 11:07 AM

Good, but missing some of the fills - I'm pretty sure there's one in the chorus.

guest
You may want to rate the tab now too:
select rating
Wanna post a correction for this tab? Suggest correction