Oops, an error
Loading. Please wait.

My Hero bass

version 1
version 1

Whole song

Interactive

2,879 views 1 this week
1 commentread comment
1 2 3 4 5
3 more votes to show rating
add to favorites
×
Save as Personal and add changes to this tab that will be seen only by you. Learn more ›
×
You can save this tab as Personal to edit and correct it or add notes. All changes will be seen only by you. Learn more »
launch autoscroll
font size
0
reset
guitar tuner
edit
Autoscroll
slow
fast
+/-
esc
set tempo
stop
Author
Difficulty
This is a bass tab for paramore’s ACOUSTIC cover of ‘MY HERO’


This is the melody tab for verse and chorus…. live he uses some sorta  baritone 
this is how to play it on bass in standard…… sounds excellent with slight compression and high 
boost


They rhythm acoustic plays standard tuning capo first fret ….(capo1)  Chords are relative to capo

 G  Em Cmaj
--3----0----0------------------------------|
--0----0----1------------------------------|
--0----0----0------------------------------|
--0----2----2------------------------------|
--2----2----3------------------------------|
--3----0---(0)-----------------------------|


8/8 TIME
Tuning.. standard
Verse
  G
 6’times     10’ times             cool tag
----------------------|    ---------6-------------|
---------3333333333---X8   ---------6-------------|
----------------------|    ------86---------------|
---4444441------------|    ---6/1--8--------------|
   EEEEEEEEEEEEEEEE           EEEEEEE

Chorus….
Cmaj
---------------------------15151515-|  |------------------------17171717-|
---15151515171717171818181815151515-|  |15151515171717171818181815151515-|
---16161616161616161616161616161616-|  |16161616161616161616161616161616-|
------------------------------------|  |---------------------------------|
    EEEEEEEEEEEEEEEEEEEEEEEEEEEEEEE      EEEEEEEEEEEEEEEEEEEEEEEEEEEEEEEE
Em
------------------------------------|  |----------------17171717---------|
-----------171717171818181820202020-|  |18181818202020201818181817171717-|
---18181818181818181818181818181818-|  |18181818181818181818181818181818-|
---16161616161616161616161616161616-|  |16161616161616161616161616161616-|
   EEEEEEEEEEEEEEEEEEEEEEEEEEEEEEEE    EEEEEEEEEEEEEEEEEEEEEEEEEEEEEEEE
Cmaj
---------------------------15151515-|  |------------------------17171717-|
---15151515171717171818181815151515-|  |15151515171717171818181815151515-|
---16161616161616161616161616161616-|  |16161616161616161616161616161616-|
------------------------------------|  |---------------------------------|
    EEEEEEEEEEEEEEEEEEEEEEEEEEEEEEE      EEEEEEEEEEEEEEEEEEEEEEEEEEEEEEEE
Em
------------------------------------|  |----------------17171717---------|
-----------171717171818181820202020-|  |18181818202020201818181817171717-|
---18181818181818181818181818181818-|  |18181818181818181818181818181818-|
---16161616161616161616161616161616-|  |16161616161616161616161616161616-|
   EEEEEEEEEEEEEEEEEEEEEEEEEEEEEEEE    EEEEEEEEEEEEEEEEEEEEEEEEEEEEEEEE

---------6--------------|
---------6--------------|
------86----------------|
---6/1--6---------------|
        EEEEEEWH

 BRIDGE
 G
-121312~~~~   -121312~~~~   -121312~~~~   -121312-----|
-------13~~   -------11~~   -------13~~   ------/15---|
-----------   -----------   -----------   ------/16---|
-----------   -----------   -----------   ------------|
  E E E WH
HOLD 2 BARS    VAMP 2 BARS
G
------------------------------|
-13~~~~-----6666666666666666--|
-11~~~~-----6666666666666666--|
------------------------------|

BACK TO VERSE THEN CHORUSX?

            
            
Suggest correction
Creating personal tab
Creating personal tab
You can edit any tab online and save it as your Personal.

You can edit, replace or remove any tab part or add personal notes – all changes will be seen only by you.

Personal tabs can be accessed anytime from any device, even offline.
Learn more »
Give kudos to tab author, rate the tab!
1 2 3 4 5
comments
print report bad tab
1 comment total.
0 reply
AlexD97 579 Jun 24, 2010 02:36 AM

Wait, what?

guest
You may want to rate the tab now too:
select rating
Wanna post a correction for this tab? Suggest correction