Oops, an error
Loading. Please wait.

My Hero Tab

version 1
version 1

Whole song

Interactive

35,963 views 1 this week
no commentswrite comment
1 2 3 4 5
please rate
add to favorites
launch autoscroll
font size
0
reset
how to read this tab
guitar tuner
Autoscroll
slow
fast
+/-
esc
set tempo
stop
Help us to improve Ultimate-Guitar.com Take our survey!
×
-------------------------------------------------------------------------------
                             MY HERO - Paramore
-------------------------------------------------------------------------------
Tabbed by: silver_and_cold
Email: deranged_smiley_faces@hotmail.com

by the way, thanks anthony for correcting some stuff. =)

Tuning: Half-Step Down [eb Bb Gb Db Ab Eb]

INTRO
Guitar 1
eb|--5-5-5--5--4-4-4-4-4-4-4-4-------------------------|
Bb|--5-5-5--5--5-5-5-5-5-5-5-5-------------------------|
Gb|--6-6-6--6--6-6-6-6-6-6-6-6-------------------------|
Db|--7-7-7--7--6-6-6-6-6-6-6-6-------------------------|
Ab|--7-7-7--7--4-4-4-4-4-4-4-4-------------------------|
Eb|--5-5-5--5--4-4-4-4-4-4-4-4-------------------------|

Then:
eb|------------------------|
Bb|------------------------|
Gb|------------7-----------|
Db|------------7-----------|
Ab|------9-7---5-----------|
Eb|--7-7-----9-------------|


For Verse, repeat Intro


CHORUS
Guitar 1
eb|--5-5-5-5-5-5-5-5-5-5-5-5-5-5-5-5-5-5-5-5----------------------------------|
Bb|--7-7-7-7-7-7-7-7-7-7-7-7-7-7-7-7-7-7-7-7--9-9-9-9-10-10-10-10-12-12-12-12-|
Gb|--7-7-7-7-7-7-7-7-7-7-7-7-7-7-7-7-7-7-7-7--x-x-x-x-x--x--x--x--x--x--x--x--|
Db|--7-7-7-7-7-7-7-7-7-7-7-7-7-7-7-7-7-7-7-7--6-6-6-6-7--7--7--7--9--9--9--9--|
Ab|--5-5-5-5-5-5-5-5-5-5-5-5-5-5-5-5-5-5-5-5----------------------------------|
Eb|--5-5-5-5-5-5-5-5-5-5-5-5-5-5-5-5-5-5-5-5----------------------------------|

Guitar 2
eb|--5-5-5-5-5-5-5-5-5-5-5-5-5-5-5-5-5-5-5-5-5-5-5-5-5-5-5-5-5-5-5-5----------|
Bb|--7-7-7-7-7-7-7-7-7-7-7-7-7-7-7-7-7-7-7-7-7-7-7-7-7-7-7-7-7-7-7-7----------|
Gb|--7-7-7-7-7-7-7-7-7-7-7-7-7-7-7-7-7-7-7-7-7-7-7-7-7-7-7-7-7-7-7-7----------|
Db|--7-7-7-7-7-7-7-7-7-7-7-7-7-7-7-7-7-7-7-7-7-7-7-7-7-7-7-7-7-7-7-7----------|
Ab|--5-5-5-5-5-5-5-5-5-5-5-5-5-5-5-5-5-5-5-5-5-5-5-5-5-5-5-5-5-5-5-5----------|
Eb|--5-5-5-5-5-5-5-5-5-5-5-5-5-5-5-5-5-5-5-5-5-5-5-5-5-5-5-5-5-5-5-5----------|


Guitar 1
eb|------------------------------------------------------------------------------------------|
Bb|--9-9-9-9-10-10-10-10-12-12-12-12-10-10-10-10-12-12-12-12-14-14-14-14-9-9-9-9-10-10-10-10-|
Gb|--x-x-x-x-x--x--x--x--x--x--x--x--x--x--x--x--x--x--x--x--x--x--x--x--x-x-x-x-x--x--x--x--|
Db|--6-6-6-6-7--7--7--7--9--9--9--9--7--7--7--7--9--9--9--9--11-11-11-11-6-6-6-6-7--7--7--7--|
Ab|------------------------------------------------------------------------------------------|
Eb|------------------------------------------------------------------------------------------|

Guitar 2
eb|--5-5-5-5-5-5-5-5-5-5-5-5-5-5-5-5-5-5-5-5-5-5-5-5-5-5-5-5-5-5-5-5-5-5-5-5-----------------|
Bb|--5-5-5-5-5-5-5-5-5-5-5-5-5-5-5-5-5-5-5-5-5-5-5-5-5-5-5-5-5-5-5-5-5-5-5-5-----------------|
Gb|--6-6-6-6-6-6-6-6-6-6-6-6-6-6-6-6-6-6-6-6-6-6-6-6-6-6-6-6-6-6-6-6-5-5-5-5-----------------|
Db|--7-7-7-7-7-7-7-7-7-7-7-7-7-7-7-7-7-7-7-7-7-7-7-7-7-7-7-7-7-7-7-7-7-7-7-7-----------------|
Ab|--7-7-7-7-7-7-7-7-7-7-7-7-7-7-7-7-7-7-7-7-7-7-7-7-7-7-7-7-7-7-7-7-7-7-7-7-----------------|
Eb|--5-5-5-5-5-5-5-5-5-5-5-5-5-5-5-5-5-5-5-5-5-5-5-5-5-5-5-5-5-5-5-5-5-5-5-5-----------------|


Then
eb|-------------------------|
Bb|-------------------------|
Gb|-------------7-----------|
Db|-------------7-----------|
Ab|------9-7----5-----------|
Eb|--7-7-----9--------------|
              

Repeat Intro for Verse 2
Chorus


BRIDGE
Guitar 1:
eb|--4~----5~---------------|
Bb|--5~----5~---------------|
Gb|--6~----6~---------------|
Db|--6~----7~---------------|
Ab|--4~----7~---------------|
Eb|--4~----5~---------------|

Guitar 2
eb|--4-5-4-5~---------------|
Bb|--5-----5~-5-5-5-5-5-5-5-|
Gb|-------------------------|
Db|-------------------------|
Ab|-------------------------|
Eb|-------------------------|


Then
eb|--5--------------------|
Bb|--5--------------------|
Gb|--6--------------------|
Db|--7--------------------|
Ab|--7--------------------|
Eb|--5-5-5-5-5-5-5-5------|


Repeat Intro for Bridge
Chorus


| /  slide up
| \  slide down
| h  hammer-on
| p  pull-off
| ~  vibrato
| +  harmonic
| x  Mute note
===============================================================================
Suggest correction
Give kudos to tab author, rate the tab!
1 2 3 4 5
comments
print report bad tab
guest
You may want to rate the tab now too:
select rating
Please do not post tabs as comments. Select "correction" instead!