Oops, an error
Loading. Please wait.

Native Tongue Tab

version 3
version 3

Whole song

  • It is a combination of the first two tabs with som... Show more
28 views 1 this week
no commentswrite comment
1 2 3 4 5
3 more votes to show rating
add to favorites
launch autoscroll
font size
0
reset
how to read this tab
guitar tuner
Autoscroll
slow
fast
+/-
esc
set tempo
stop
Help us to improve Ultimate-Guitar.com Take our survey!
×
Author
Difficulty
Tuning
intermediate
C# G# C# F# A# D#
About this tab version
It is a combination of the first two tabs with some edits and it is in Drop C# to match with the other two Self-Titled B-Sides. Was this info helpful? Yes No
Hello! It's me again! I have made a Native Tongue Tab but in Drop C#!
Lead Guitar is at the bottom! Bye!

------------------------------------------------------------------------------
| *     palm mute                                                                                  |
| v     vibrato                                                                |
------------------------------------------------------------------------------

                                                [RHYTHM GUITAR]

                                                [VERSE I]

D#|------------------------------------------------------------------------------|
A#|------------------------------------------------------------------------------|
F#|------------------------------------------------------------------------------|
C#|------------------------5--5-5-5--5--5-5-5--7-5--3--3-3-3------------5-5-5-5--|
G#|-3---3-3-3--3---3-3-3---3--3-3-3--3--3-3-3--5-3--1--1-1-1--3--3-3-3--3-3-3-3--|
C#|-3---3-3-3--3---3-3-3--------------------------------------3--3-3-3-----------|

                                                [PRE-CHORUS I]

D#|-----------------------|
A#|-----------------------|
F#|-3----------5----------|
C#|-3--3(x16)--5--5(x16)--|
G#|-1--1-------3--3-------|
C#|----*----------*-------|

                                                [CHORUS I]

D#|---------------------------|
A#|---------------------------|
F#|---------------------------|
C#|--8-8--3--10-10--12--10----| (x2)
G#|--8-8--3--10-10--12--10----|
C#|--8-8--3--10-10--12--10----|

                                                [VERSE II]

D#|------------------------------------------------------------------------------|
A#|------------------------------------------------------------------------------|
F#|------------------------------------------------------------------------------|
C#|------------------------5--5-5-5--5--5-5-5--7-5--3--3-3-3------------5-5-5-5--|
G#|-3---3-3-3--3---3-3-3---3--3-3-3--3--3-3-3--5-3--1--1-1-1--3--3-3-3--3-3-3-3--|
C#|-3---3-3-3--3---3-3-3--------------------------------------3--3-3-3-----------|

                                                [PRE-CHORUS 1]
                                                {Part I}

D#|-----------------------|
A#|-----------------------|
F#|-3----------5----------|
C#|-3--3(x16)--5--5(x16)--|
G#|-1--1-------3--3-------|
C#|----*----------*-------|

                                                [PRE-CHORUS 2]
                                                {Part II}

D#|---------------|--------------------|
A#|---------------|--------------------|
F#|---------------|--------------------|
C#|--0--10--5--7--|----5--7--8--10-----|
G#|--0--10--5--7--|----5--7--8--10-----|
C#|--0--10--5--7--|----5--7--8--10-----|

                                                [CHORUS 2]
                                                {Part I}

D#|---------------------------|
A#|---------------------------|
F#|---------------------------|
C#|--8-8--3--10-10--12--10----| (x2)
G#|--8-8--3--10-10--12--10----|
C#|--8-8--3--10-10--12--10----|
                                                [CHORUS 2]
                                                {Part II}

D#|-----------------------------------|
A#|-----------------------------------|
F#|-----------------------------------|
C#|-88888-1010101010-88888-1010101010-| 
G#|-88888-1010101010-88888-1010101010-|
C#|-88888-1010101010-88888-1010101010-|

                                                [SOLO]

D#|---------------------------------|------------------------------|
A#|---------------------------------|------------------------------|
F#|-10------77777-------------------|------------------------------|
C#|-10-(x5)-77777-88888-1010101010--|------------------------------|
G#|-8-------55555-88888-1010101010--|------------------------------|
C#|---------------88888-1010101010--|-7--3--5-7--3--8-10v----------|

                                                [BREAK]

(Plays BEFORE the Final Chorus)

D#|-----------------|
A#|-----------------|
F#|-----------------|
C#|--5--7--8--10----|
G#|--5--7--8--10----|
C#|--5--7--8--10----|

                                                [FINAL CHORUS]

D#|---------------------------|
A#|---------------------------|
F#|---------------------------|
C#|--8-8--3--10-10--12--10----| (x2)
G#|--8-8--3--10-10--12--10----|
C#|--8-8--3--10-10--12--10----|
                        
D#|-----------------------------------|
A#|-----------------------------------|
F#|-----------------------------------|
C#|-88888-1010101010-88888-1010101010-| 
G#|-88888-1010101010-88888-1010101010-|
C#|-88888-1010101010-88888-1010101010-|

                                                [OUTRO]

D#|---------|
A#|---------|
F#|-----5---|
C#|--3--x---| 
G#|--3--3---|
C#|--3------|


D#|---------|
A#|---------|
F#|--7--17--|
C#|--x---x--| 
G#|--5--15--|
C#|---------|
                                                END
---------------------------------------------------------------------------------

                                                LEAD GUITAR

                                                [VERSE I]

D#|-----------------------------------------8------------8--8------|
A#|----8--------------8---------------8-----8------8-----8--8------|
F#|---------10-10-----------10-10---9---9---9--9-9---9---9--9------|
C#|-10---10-10-10--10---10--10-10-----------10-----------10-10-----|
G#|----------8-8------------8--8-----------------------------------|
C#|----------------------------------------------------------------|

                                                [PRE-CHORUS 1]

D#|-----------------------|
A#|-----------------------|
F#|-3----------5----------|
C#|-3--3(x16)--5--5(x16)--|
G#|-1--1-------3--3-------|
C#|----*----------*-------|

                                                [CHORUS I]

D#|------------------------------------------|
A#|-6---6--6---6--6--------10-8-10-8-10-6----|
F#|---7------7--------7-5--------------------|
C#|------------------------------------------|
G#|------------------------------------------|
C#|------------------------------------------|


                                                [VERSE II]

D#|-----------------------------------------8------------8--8------|
A#|----8--------------8---------------8-----8------8-----8--8------|
F#|---------10-10-----------10-10---9---9---9--9-9---9---9--9------|
C#|-10---10-10-10--10---10--10-10-----------10-----------10-10-----|
G#|----------8-8------------8--8-----------------------------------|
C#|----------------------------------------------------------------|

                                                [PRE-CHORUS 2]
                                                {Part I}

D#|-----------------------|
A#|-----------------------|
F#|-3----------5----------|
C#|-3--3(x16)--5--5(x16)--|
G#|-1--1-------3--3-------|
C#|----*----------*-------|

                                                [PRE-CHORUS 2]
                                                {Part II}

D#|-----------------|---------------------|
A#|-----------------|---------------------|
F#|---------12--14--|---12--14--15--17----|
C#|-12--10---x---x--|----x---x---x---x----|
G#|-12--10--10--12--|---10--12--13--15----|
C#|-12--10----------|---------------------|

                                                [CHORUS 2]
                                                {Part I}                

D#|------------------------------------------|
A#|-6---6--6---6--6--------10-8-10-8-10-6----|
F#|---7------7--------7-5--------------------|
C#|------------------------------------------|
G#|------------------------------------------|
C#|------------------------------------------|

(Does NOT play Part II)

                                                [SOLO]

D#|------------------------------------------------------------------------|
A#|------------------------------------------------------------------------|
F#|-10-10-10-12-14-10-10-10-10-12-14-12-10-7-9-10-9-----10--12--17--14-----|
C#|-------------------------------------------------10---x---x---x---x-----|
G#|------------------------------------------------------8--10--15--12-----|
C#|------------------------------------------------------------------------|

D#|-----------------------------------------------------|
A#|-----------------------------------------------------|
F#|-10-10-10--12-12-12--14-14-14--9-9-8-7-6-5-4-3v------|
C#|-----------------------------------------------------|
G#|-----------------------------------------------------|
C#|-----------------------------------------------------|

                                                [BREAK]

D#|----4----------4------------------------------------|-----------------|
A#|----5-----5----5-----------10----9----10------------|-----------------|
F#|----------6----------------10----8----10------------|-12-14--15-17----|
C#|----------------------------------------------------|-12-14--15-17----|
G#|----------------------------------------------------|-10-12--13-15----|
C#|----------------------------------------------------|-----------------|


                                                [FINAL CHORUS]

D#|------------------------------------------|
A#|-6---6--6---6--6--------10-8-10-8-10-6----|
F#|---7------7--------7-5--------------------|
C#|------------------------------------------|
G#|------------------------------------------|
C#|------------------------------------------|

                                                [OUTRO]

D#|---------|
A#|---------|
F#|--7--17--|
C#|--x---x--| 
G#|--5--15--|
C#|---------|
                                                END
--------------------------------------------------------------------------------
Suggest correction
Give kudos to tab author, rate the tab!
1 2 3 4 5
comments
print report bad tab
guest
You may want to rate the tab now too:
select rating
Wanna post a correction for this tab? Suggest correction