Oops, an error
Loading. Please wait.

Now Bass Tab

version 1
version 1

Whole song

Interactive

9,301 views 12 this week
no commentswrite comment
1 2 3 4 5
accurate
x 6
add to favorites
launch autoscroll
font size
0
reset
guitar tuner
Tab Pro tools
  • play this tab
  • loop segment
  • change instrument
  • show fretboard
  • metronome
×
Best way to learn
"Now"
Autoscroll
slow
fast
+/-
esc
set tempo
stop
Contributor
Difficulty
Tuning
intermediate
D A D G B E
00:13 Intro
G|-------------------------------------------------------------------------|
D|-------------------------------------------------------------------------|
A|-------------------------------------------------------------------------|
D|-7/-10-10-10-10-10-10-10-10-10-10-10-10-10-10-10-12--777777777777-7575---|

G|----------------------------------------------------------------------|
D|----------------------------------------------------------------------|
A|----------------------------------------------------------------------|
D|-10-10-10-10-10-10-10-10-10-10-10-10-10-10-10-12--7777777777777777----|


00:25 Verse
G|---------------------------------------------------------------|
D|---------------------------------------------------------------|
A|-----------------------------------------10----------------75--|
D|-10-10-10-10-10-10-10-10-12-10-12~-10-12-----77777777777777----|

G|--------------------------------------------------------------------|
D|--------------------------------------------------------------------|
A|--------------------------------------------------------------------|
D|-10-10-10-10-10-10-10-10-10-10-10-10-10-10-10-10--7777777777777777--|


00:37 Pre-chorus
G|--------------------------------------------------------------------|
D|--------------------------------------------------------------------|
A|--------------------------------------------------------------------|
D|-5555555555555555-77777777777777--10101010101010101010101010101010--|

G|-------------------------------------------------------|
D|-------------------------------------------------------|
A|-------------------------------------------------------|
D|-0000000000000000-55555555555555-77777777777777-14-12--|

G|--------------------------------------------------------------------|
D|--------------------------------------------------------------------|
A|--------------------------------------------------------------------|
D|-10101010101010101010101010101010-12121212121212121212121212121212--|


01:01 Chorus 2x
G|-------------------------------------------------------|
D|-------------------------------------------------------|
A|-------------------------------10-7--------------------|
D|-10101010101010101010101010-12------77777777777775757--|

G|-------------------------------------------------------|
D|-------------------------------------------------------|
A|-------------------------------10-7--------------------|
D|-10101010101010101010101010-12------77777777-33333333--|


01:36 Verse 2
G|-------------------------------------------------------|
D|-------------------------------------------------------|
A|--------------------------------------3-5-7------------|
D|-7/-10-10-10-X-10-X-10-X-10-10-10-5-7------------------|

G|-------------------------------------------------------|
D|-------------------------------------------------------|
A|-------------------------------------------------------|
D|-10-10-10-X-10-X-10-X-10-10-10-5-5-5-5-----------------|

G|----------------------------------------------------------------------|
D|----------------------------------------------------------------------|
A|--------7-5------------------------------------3-5-7---------------75-|
D|-7777-X------10-10-10-X-10-X-10-X-10-10-10-5-7-------777X7X7X7777X----|

G|-----------------------------------------------------------|
D|-----------------------------------------------------------|
A|------------------------------------------------------75---|
D|-10-10-10-X-10-X-10-X-10-10-10-5-5-5-5--777X7X7X7777X------|


02:00 Pre-chorus 2
G|--------------------------------------------------------------------|
D|--------------------------------------------------------------------|
A|--------------------------------------------------------------------|
D|-5555555555555535-77777777777757--1010101010101010101010101010710---|

G|-------------------------------------------------------|
D|-------------------------------------------------------|
A|-------------------------------------------------------|
D|-0000000000000000-55555555555535-77777777777777-14-12--|

G|--------------------------------------------------------------------|
D|--------------------------------------------------------------------|
A|--------------------------------------------------------------------|
D|-10101010101010101010101010101010-12121212121212121212121212121212--|


02:24 Chorus


02:48 Bridge
G|---2\14-14/-2--------|------------------------------------------|
D|----------------7/---|------------------------------------------|
A|--------------0------|------------------------------------------|
D|---------------------|---5/14-14-14-14-555--5/14-14-14-14-555---|

G|------------------------------|
D|------------------------------|
A|---0-3-5-3----------101010----|
D|-----------5--(5)55-----------|

Pre-chorus
Chorus

Outro 
G|-------------------|-------------------------------|
D|-------------------|-------------------------------|
A|-------------------|-------------------------------|
D|-77777777-33333333-|---7---7---7---7-3--3---3---3--|
comments
print report bad tab
I want to post or [tab]
guest
You may want to rate the tab now too:
select rating
Please do not post tabs as comments. Select "correction" instead!