Oops, an error
Loading. Please wait.

Now Tab

version 5
version 5

Interactive

6,628 views 6 this week
no commentswrite comment
1 2 3 4 5
1 last vote to show rating
add to favorites
launch autoscroll
font size
0
reset
how to read this tab
guitar tuner
Autoscroll
slow
fast
+/-
esc
set tempo
stop
Help us to improve Ultimate-Guitar.com Take our survey!
×
Author
Standard tuning [EADGBe]

NOTE: I'm going to use * as a symbol for string-bending
 cause I don't know what the real one is xD


Verse (a)

e||-------------------------------------|-----------------------------------|
B||-------------------------------------|-----------------------------------|
G||.------------------------------------|-----------------------------------|
D||.------------------------------------|-----------------------------------|
A||-------------------------------------|-----------------------------------|
E||--3/12---12---12---12---3---3---3----|3/12---12---12---12--3---3---3-----|



e|----------------------------------|--------------------------------------||
B|----------------------------------|--------------------------------------||
G|----------------------------------|-------------------------------------.||
D|----------------------------------|-------------------------------------.||
A|----------------------------------|--------------------------------------||
E|-----5/8---8---8---8---5---5---5--|-5/10---10---10---10---8---8---8/3----||

Repeat


Pre-chorus (b)

e|--------------------------------------------------------------------------|
B|--0x16---1x12---3-3-1-1---5x16----5x16*-----------------------------------|
G|--------------------------------------------------------------------------|
D|--------------------------------------------------------------------------|
A|--------------------------------------------------------------------------|
E|--------------------------------------------------------------------------|


e|-----7x16----8x12----10-10-8-8------12x16-----12x16-----------------------|
B|--------------------------------------------------------------------------|
G|--------------------------------------------------------------------------|
D|--------------------------------------------------------------------------|
A|--------------------------------------------------------------------------|
E|--------------------------------------------------------------------------|


Chorus (c)

e||------------------------------------------------------------------------||
B||------------------------------------------------------------------------||
G||.---5-----------------------5---------------------2--------------------.||
D||.---5-----------7-----------5----------7----------3--------------------.||
A||----3---x16-----7---x16-----3---x16----7---x8-----3---x8----------------||
E||----3-----------5-----------3----------5----------1---------------------||

Repeat

Bridge(d) (unsure) 
e||---5-5--8-8--10-10-12--5--8-10--12/13/12~--------------------------------|
B||-------------------------------------------------------------------------|
G||.------------------------------------------------------------------------|
D||.------------------------------------------------------------------------|
A||-------------------------------------------------------------------------|
E||-------------------------------------------------------------------------|


e|----5-5--8-8--10--8--7--8--10-----(12/13/12~)----------------------------||
B|-------------------------------------------------------------------------||
G|------------------------------------------------------------------------.||
D|------------------------------------------------------------------------.||
A|-------------------------------------------------------------------------||
E|-------------------------------------------------------------------------||



(Take notice of the small breaks is the second verse ( ^ ^ ))

Lyrics:

(a)
Don't try to take this from me
Don't try to take this from me
Now-ow-ow-ow-ow-ow-ow-ow

Don't try to take this from me
Don't try to take this from me
Now-ow-ow-ow-ow-ow-ow-ow

Feels like I'm waken from the dead
And everyone's been waitin' on me
'Least now I'll never have to wonder
What it's like to sleep a year away
But were we indestructible
I thought that we could brave it all (all)
I never thought that what would take me out
Was hiding down below

(b)
Lost the battle, win the war
I'm bringing my sinking ship back to the shore
We're starting over, or head back in
There's a time and a place to die but this ain't it

(c)
If there's a future, we want it
Now-ow-ow-ow-ow-ow-ow-ow
If there's a future, we want it
Now-ow-ow-ow-ow-ow-ow-ow
If there's a future, we want it
Now-ow-ow-ow-ow-ow-ow-ow
If there's a future, we want it
Now-ow-ow-ow-ow-ow-ow-ow

(a)
Don't try to take this from me
Don't try to take this from me
Now-ow-ow-ow-ow-ow-ow-ow

Don't try to take this from me
Don't try to take this from me
^Now-ow-ow-ow-ow-ow-ow-ow^

Wish I could find a crystal ball
For the days I feel ^completely worthless^
You know I'd use it all for good
I would not take it for granted (granted)
Instead, I'd have some memories
For the days I don't feel anything
At least, they would remind me
Not to make the same mistakes again

(b)
Lost the battle, win the war
I'm bringing my sinking ship back to the shore
We're starting over or head back in
There's a time and a place to die but this ain't it

(c)
If there's a future, we want it
Now-ow-ow-ow-ow-ow-ow-ow
If there's a future, we want it
Now-ow-ow-ow-ow-ow-ow-ow
If there's a future, we want it
Now-ow-ow-ow-ow-ow-ow-ow
If there's a future, we want it
Now-ow-ow-ow-ow-ow-ow-ow

(d)
There's a time and a place to die 

There's a time and a place to die
And this ain't it

There's a time and a place to die
And this ain't it, this ain't 

(b)
it
This ain't it

There's a time and a place to die 
There's a time and a place to die
But this ain't it, no

(c)
If there's a future, we want it
Now-ow-ow-ow-ow-ow-ow-ow
If there's a future, we want it
Now-ow-ow-ow-ow-ow-ow-ow
If there's a future, we want it now
(Now-ow-ow-ow-ow-ow-ow-ow)

If there's a future, we want it
Now-ow-ow-ow-ow-ow-ow-ow
Now-ow-ow-ow-ow-ow-ow-ow
Now-ow-ow-ow-ow-ow-ow-ow
Suggest correction
Give kudos to tab author, rate the tab!
1 2 3 4 5
comments
print report bad tab
guest
You may want to rate the tab now too:
select rating
Wanna post a correction for this tab? Suggest correction