Oops, an error
Loading. Please wait.

Now tab

version 6
version 6

Interactive

7,711 views 27 this week
5 commentsread comments
1 2 3 4 5
x 13
add to favorites
×
Save as Personal and add changes to this tab that will be seen only by you. Learn more ›
×
You can save this tab as Personal to edit and correct it or add notes. All changes will be seen only by you. Learn more »
launch autoscroll
font size
0
reset
how to read this tab
guitar tuner
edit
Autoscroll
slow
fast
+/-
esc
set tempo
stop
Paramore - Now

Tuning: standard

INTRO "Don't try to take this from me..."
e|--------------------------------------------------------------------------|
B|--------------------------------------------------------------------------|
G|--------------------------------------------------------------------------|
D|--------------------------------------------------------------------------|
A|--------------------------------------------------------------------------|
E|-3/12-12-12-12\3-3-3-3/12-12-12-12\3-3-3-5/8-8-8-8\5-5-5-5/10-10-8-8-5-5-5|(x2)


VERSE "Feels like im waking from the dead..."
e|--------------------------------------------------------------------------|
B|--------------------------------------------------------------------------|
G|--------------------------------------------------------------------------|
D|--------------------------------------------------------------------------|
A|--------------------------------------------------------------------------|
E|-3/12-12-12-12\3-3-3-3/12-12-12-12\3-3-3-5/8-8-8-8\5-5-5-5/10-10-8-8-5-5-5|(x4)


PRE-CHORUS Bend up the last note (listen to the song for it) "Lost the battle..."
e|-------------------------------------------------------------------------|
B|-------------------------------------------------------------------------|
G|-444444444444-2222-4444-555555555555-77-55-99999999-7777-9999 9^-(x16)---|
D|-------------------------------------------------------------------------|
A|-------------------------------------------------------------------------|
E|-------------------------------------------------------------------------|

continued...

e|----------------------------------------1212121212121212---12-12^-(x16)--------|
B|--12121212-15-12-1313131313131313-15-13-----------------13---------------------|
G|-------------------------------------------------------------------------------|
D|-------------------------------------------------------------------------------|
A|-------------------------------------------------------------------------------|
E|-------------------------------------------------------------------------------|

CHORUS  "If there's a future we want it..."
e|---------------------------------------|
B|---------------------------------------|
G|--5(x12)-------------------------------|
D|--5(x12)----5(x4)----7(x16)------------|
A|--3(x12)----5(x4)----7(x16)------------|
E|------------3(x4)----5(x16)------------|

continued..                                   whole thing x 2

"If there's a future we want it..."  
e|--------------------------------------|
B|--------------------------------------|
G|--5(x12)------------------------------|
D|--5(x12)----5(x3)----7(x8)-----3(x8)--|
A|--3(x12)----5(x3)----7(x8)-----3(x8)--|
E|------------3(x3)----5(x8)-----1(x8)--|


INBETWEEN CHORUS AND VERSE "Don't try to take this from me..."
e|--------------------------------------------------------------------------|
B|--------------------------------------------------------------------------|
G|--------------------------------------------------------------------------|
D|--------------------------------------------------------------------------|
A|--------------------------------------------------------------------------|
E|-3/12-12-12-12\3-3-3-3/12-12-12-12\3-3-3-5/8-8-8-8\5-5-5-5/10-10-8-8-5-5-5|

e|-------------------------------------------------------------------------|
B|-------------------------------------------------------------------------|
G|-------------------------------------------------------------------------|
D|-------------------------------------------------------12----------------|
A|-------------------------------------------------------12----------------|
E|-3/12-12-12-12\3-3-3-3/12-12-12-12~--------------------12----------------|


VERSE
e|-------------------------------------------------------------------------|
B|-------------------------------------------------------------------------|
G|-------------------------------------------------------------------------|
D|-------------------------------------------------------------------------|
A|-------------------------------------------------------------------------|
E|-3/12-12-12-12\3-3-3-3/12-12-12-12/3-3-3---------------------------------|

e|-------------------------------------------------------------------------|
B|-------------------------------------------------------------------------|
G|-------------------------------------------------------------------------|
D|-------------------------------------------------------------------------|
A|-------------------------------------------------------------------------|
E|-3/12-12-12-12\3-3-3-3/12-12-12-12\3-3-3-5/8-8-8-8\5-5-5-5/10-10-8-8-5-5-|(x3)


PRE-CHORUS Bend up the last note (listen to the song for it) "Lost the battle..."
e|-------------------------------------------------------------------------|
B|-------------------------------------------------------------------------|
G|-444444444444-2222-4444-555555555555-77-55-99999999-7777-9999 9^-(x16)---|
D|-------------------------------------------------------------------------|
A|-------------------------------------------------------------------------|
E|-------------------------------------------------------------------------|

continued...

e|----------------------------------------1212121212121212---12-12^-(x16)--------|
B|--12121212-15-12-1313131313131313-15-13-----------------13---------------------|
G|-------------------------------------------------------------------------------|
D|-------------------------------------------------------------------------------|
A|-------------------------------------------------------------------------------|
E|-------------------------------------------------------------------------------|

CHORUS  "If there's a future we want it..."
e|---------------------------------------|
B|---------------------------------------|
G|--5(x12)-------------------------------|
D|--5(x12)----5(x4)----7(x16)------------|
A|--3(x12)----5(x4)----7(x16)------------|
E|------------3(x4)----5(x16)------------|

continued..                                   whole thing x 2

"If there's a future we want it..."  
e|--------------------------------------|
B|--------------------------------------|
G|--5(x12)------------------------------|
D|--5(x12)----5(x3)----7(x8)-----3(x8)--|
A|--3(x12)----5(x3)----7(x8)-----3(x8)--|
E|------------3(x3)----5(x8)-----1(x8)--|


BRIDGE  "There's a time and a place to die..."

e|---------------10---12----------------10-12^13V12--------------------|
B|--10-10--13-13------------10-10-13-13--------------------------------|
G|---------------------------------------------------------------------|
D|---------------------------------------------------------------------|
A|---------------------------------------------------------------------|
E|---------------------------------------------------------------------|

e|--------------10------------------10---------------------------------|
B|--10-10-13-13------13-12-12-13-13------------------------------------|
G|---------------------------------------------------------------------|
D|---------------------------------------------------------------------|
A|---------------------------------------------------------------------|
E|---------------------------------------------------------------------|

e|---------------10---12----------------10-12^13V12--------------------|
B|--10-10--13-13------------10-10-13-13--------------------------------|
G|---------------------------------------------------------------------|
D|---------------------------------------------------------------------|
A|---------------------------------------------------------------------|
E|---------------------------------------------------------------------|

e|----------10-------------------------------------------------------|
B|---10-13------13--12--13-------------------------------------------|
G|-------------------------------------------------------------------|
D|-------------------------------------------------------------------|
A|-------------------------------------------------------------------|
E|-------------------------------------------------------------------|


PRE-CHORUS Bend up the last note (listen to the song for it) "Lost the battle..."
e|-------------------------------------------------------------------------|
B|-------------------------------------------------------------------------|
G|-444444444444-2222-4444-555555555555-77-55-99999999-7777-9999 9^-(x16)---|
D|-------------------------------------------------------------------------|
A|-------------------------------------------------------------------------|
E|-------------------------------------------------------------------------|

e|----------------------------------------1212121212121212---12-12^-(x16)--------|
B|--12121212-15-12-1313131313131313-15-13-----------------13---------------------|
G|-------------------------------------------------------------------------------|
D|-------------------------------------------------------------------------------|
A|-------------------------------------------------------------------------------|
E|-------------------------------------------------------------------------------|

CHORUS  "If there's a future we want it..."
e|---------------------------------------|
B|---------------------------------------|
G|--5(x12)-------------------------------|
D|--5(x12)----5(x4)----7(x16)------------|
A|--3(x12)----5(x4)----7(x16)------------|
E|------------3(x4)----5(x16)------------|

continued..

"If there's a future we want it..."  
e|--------------------------------------|
B|--------------------------------------|
G|--5(x12)------------------------------|
D|--5(x12)----5(x3)----7(x8)-----3(x8)--|
A|--3(x12)----5(x3)----7(x8)-----3(x8)--|
E|------------3(x3)----5(x8)-----1(x8)--|

continued..


"If there's a future we want it..."
e|---------------------------------------|
B|---------------------------------------|
G|--5(x12)-------------------------------|
D|--5(x12)----5(x4)----7(x16)------------|
A|--3(x12)----5(x4)----7(x16)------------|
E|------------3(x4)----5(x16)------------|

"If there's a future we want it..."  
e|-------------------------------------------------------------------------|
B|-------------------------------------------------------------------------|
G|--5(x12)-----------------------------------------------------------------|
D|--5(x12)----5(x3)----7(x8)-----3(x8)----7(x8)-----3(x8)---7777/10101010--|
A|--3(x12)----5(x3)----7(x8)-----3(x8)----7(x8)-----3(x8)---7777/8-8-8-8---|
E|------------3(x3)----5(x8)-----1(x8)----5(x8)-----1(x8)---5555/8-8-8-8---|


            
            
Suggest correction
Creating personal tab
Creating personal tab
You can edit any tab online and save it as your Personal.

You can edit, replace or remove any tab part or add personal notes – all changes will be seen only by you.

Personal tabs can be accessed anytime from any device, even offline.
Learn more »
comments
print report bad tab
5 comments total. Showing first comments.
+2 reply
stummerman 89 Aug 25, 2013 01:57 AM

Very accurate. Nice job

0 reply
jesusleadme0414 10 Oct 21, 2013 10:34 PM

tabbing is good but the amount of times each is played is off and really messed me up. The intro is played 6x and the 2nd bridge is alternate picking each of the notes, not just once each. And the last chorus is done twice before the change at the end.

0 reply
jesusleadme0414 10 Oct 21, 2013 10:36 PM

Sorry, chorus is only once before the change.

guest
You may want to rate the tab now too:
select rating
Wanna post a correction for this tab? Suggest correction