Oops, an error
Loading. Please wait.

One Of Those Crazy Girls solo tab

version 1
version 1

Whole song

Interactive

1,839 views 1 this week
1 commentread comment
1 2 3 4 5
x 3
add to favorites
×
Save as Personal and add changes to this tab that will be seen only by you. Learn more ›
×
You can save this tab as Personal to edit and correct it or add notes. All changes will be seen only by you. Learn more »
launch autoscroll
font size
0
reset
how to read this tab
guitar tuner
edit
Autoscroll
slow
fast
+/-
esc
set tempo
stop
Author
Difficulty
transcribed by stummerman

stummer@live.co.uk

Key
d = down stroke (on beat)
u = up stroke (off beat)
s = slide
h = hammer on
p = pull off


I've re tabbed the solo as other tabs didn't sound 100% right to me. So here it is 
represented with up and down strokes (or on and off the beat). This way  its slightly easier 
to get the timing especially on the 3rd bar.


Guitar Solo :

e|---------------------------------------------|---------------------------|
B|---------------------------------------------|---------------------------|
G|-----------------------------11-10--9~~~-----|-------------10-8---8------|
D|----slide----s8-9--11--9--8------------------|---6-8-9-8-6----------11-8-|
A|---------------------------------------------|---------------------------|
E|---------------------------------------------|---------------------------|
                d u  d   u  d  u  d   d            d u d u d u  d   u  d d



e|------------------------------------|-------------------------------------|
B|------------------------11---11-12--|--12-11-9h11p9------9----------------|
G|----11------11--10-8----------------|---------------11-----11-10h11p10----|
D|----11--8---------------------------|----------------------------------11-|
A|------------------------------------|-------------------------------------|
E|------------------------------------|-------------------------------------|
      d   d   d   u  d    u    u  d       d  d d      d    d  d  d       d


I'm pretty sure this is correct. If anyone has any corrections feel free to notify me.

            
            
Suggest correction
Creating personal tab
Creating personal tab
You can edit any tab online and save it as your Personal.

You can edit, replace or remove any tab part or add personal notes – all changes will be seen only by you.

Personal tabs can be accessed anytime from any device, even offline.
Learn more »
Give kudos to tab author, rate the tab!
1 2 3 4 5
comments
print report bad tab
1 comment total.
0 reply
JackMills 6,147 Apr 23, 2014 02:10 AM

I think the 9 at the end of the first bar should an 8.

e|---------------------------------------------|
B|---------------------------------------------|
G|-----------------------------11-10--8~~~-----|
D|----slide----s8-9--11--9--8------------------|
A|---------------------------------------------|
E|---------------------------------------------|
d u d u d u d d

like that ^^

guest
You may want to rate the tab now too:
select rating
Wanna post a correction for this tab? Suggest correction