Oops, an error
Loading. Please wait.

Part Ii Tab

version 1
version 1

Whole song

Interactive

18,196 views 12 this week
3 commentsread comments
1 2 3 4 5
x 6
add to favorites
launch autoscroll
font size
0
reset
how to read this tab
guitar tuner
Autoscroll
slow
fast
+/-
esc
set tempo
stop
Help us to improve Ultimate-Guitar.com Take our survey!
×
Author
Paramore - Part II
Tuning: drop D
Tabbed by: Gavin (youtube: crushgav)
updated 17-04-2013

watch my cover on youtube:

http://www.youtube.com/watch?v=4yFowXBuYc8

Intro 0:09 (distortion, slight delay)
e|----------------------------------------------------------------|
B|------------------------6-6--------------6-6-8------------------|
G|--15-15--9/12---------------9-7--2/5-----------7--14-^14/15-----|
D|----------------------------------------------------------------|
A|----------------------------------------------------------------|
D|----------------------------------------------------------------|

Verse (0:24) overdrive    Pre- Chorus (Oh glory..)
e|----------------------------------------8~-------8~--------------|
B|----------------------------------------10~------10~-------------|
G|----------------------------------------10~------10~-------------|
D|-8---10--8--5--3--5---------------------8~-------8~--------------|
A|-8---10--8--5--3--5-(2x)-----------------------------------------|
D|-----------------------------------------------------------------|

Chorus (distortion)
e|-------------------------------------------------------------------|
B|-------------------------------------------------------------------|
G|--7--------10-------10-------7-----------7--------10-------10--8---|
D|--7-(12x)--10-(12x)-8-(12x)--5-(12x)-----7-(12x)--10-(12x)-10--8---|
A|--5--------8--------8--------5-----------5--------8--------10--8---|
D|--------------------8--------5-----------------------------10--8---|

e|-----------------|
B|-----------------|
G|--15--15--9/12---|
D|-----------------|
A|-----------------|
D|-----------------|

Verse overdrive
e|----------------------------|
B|----------------------------|
G|----------------------------|
D|-8---10--8--5--3--5---------|
A|-8---10--8--5--3--5-(2x)----|
D|----------------------------|

Chorus (distortion)
e|-------------------------------------------------------------------|
B|-------------------------------------------------------------------|
G|--7--------10-------10-------7-----------7--------10-------10--8---|
D|--7-(12x)--10-(12x)-8-(12x)--5-(12x)-----7-(12x)--10-(12x)-10--8---|
A|--5--------8--------8--------5-----------5--------8--------10--8---|
D|--------------------8--------5-----------------------------10--8---|

Bridge (distortion, slight delay)
e|----------------------------------------------------------------------|
B|--------6-6-8----------------6-6------------6-6-8----------18-17------|
G|--2/5---------7--14-^14/15-------9-7--2/5---------7--14-14------------|
D|----------------------------------------------------------------------|
A|----------------------------------------------------------------------|
D|----------------------------------------------------------------------|

e|----------------------------------------------------------------------|
B|--------6-6-8----------------6-6------------6-6-8----------18-17------|
G|--------------7--14-^14/15-------9-7--2/5---------7--14-14------------|
D|----------------------------------------------------------------------|
A|----------------------------------------------------------------------|
D|----------------------------------------------------------------------|

Bridge guitar I LEAD (distortion, reverb and delay) tremelopick
e|----------------------------------------------------------------|
B|--1515151515 etc.. end 181818181717171715-----------------------|
G|----------------------------------------------------------------|
D|----------------------------------------------------------------|
A|----------------------------------------------------------------|
D|----------------------------------------------------------------|

Bridge guitar II RHYTM (distortion, slight delay)
e|-------------------------------|
B|-------------------------------|
G|--7--10--8--5------------------|
D|--7--10--8--5----(4x)----------|
A|--5--10--8--5------------------|
D|-----10--8--5------------------|

Outro 04:10 (distorion, tremelopick quietly)
e|-------------------------------------------------------------------|
B|-------------------------------------------------------------------|
G|-------------------------------------------------------------------|
D|--20202020202020202020202020202020202020202020 etc.-- end with 20~-|
A|-------------------------------------------------------------------|
D|-------------------------------------------------------------------|
Suggest correction
comments
print report bad tab
3 comments total.
0 reply
ccfabulous 10 Jun 04, 2013 05:07 PM

I know I sound like a complete noob, but um, I just wanted to know .. how do you play the chorus? Like, I'm pretty new to reading tabs and I don't know exactly what I'm supposed to play there.

0 reply
Life2Leftgo 50 Jun 17, 2013 03:10 AM

e|-------------------------------------------------------------------|
B|-------------------------------------------------------------------|
G|--7--------10-------10-------7-----------7--------10-------10--8---|
D|--7-(12x)--10-(12x)-8-(12x)--5-(12x)-----7-(12x)--10-(12x)-10--8---|
A|--5--------8--------8--------5-----------5--------8--------10--8---|
D|--------------------8--------5-----------------------------10--8---|

for example: G: 7 means (g string or 4th string. 7th fret)
D: 7 means (d string or 3rd string. 7th fret)
A: 5 means (a string or 2nd string. 5th fret)

If the numbers are exactly on top of eachother then it means its a chord.

e|-------------------------------------------------------------------|
B|-------------------------------------------------------------------|
G|-------------------------------------------------------------------|
D|--20202020202020202020202020202020202020202020 etc.-- end with 20~-|
A|-------------------------------------------------------------------|
D|-------------------------------------------------------------------|

Only single notes here. which means D string or 3rd string on fret 20.

0 reply
Gingybread 10 Sep 21, 2013 11:14 AM

Bridge (distortion, slight delay)
e|----------------------------------------------------------------------|
B|-6-6-----------6-6-8----------------6-6-----------6-6-8---------18-17-|
G|-----9-7--2/5---------7--14-^14/15-------9-7--2/5-------7-14-14-------|
D|----------------------------------------------------------------------|
A|----------------------------------------------------------------------|
D|----------------------------------------------------------------------|

e|----------------------------------------------------------------------|
B|-6-6-----------6-6-8----------------6-6-----------6-6-8---------18-17-|
G|-----9-7--2/5---------7--14-^14/15-------9-7--2/5-------7-14-14-------|
D|----------------------------------------------------------------------|
A|----------------------------------------------------------------------|
D|----------------------------------------------------------------------|

guest
You may want to rate the tab now too:
select rating
Wanna post a correction for this tab? Suggest correction