Oops, an error
Loading. Please wait.

Part Ii Tab

version 4
version 4

Whole song

Interactive

10 views 1 this week
no commentswrite comment
1 2 3 4 5
3 more votes to show rating
add to favorites
launch autoscroll
font size
0
reset
how to read this tab
guitar tuner
Autoscroll
slow
fast
+/-
esc
set tempo
stop
Help us to improve Ultimate-Guitar.com Take our survey!
×
Author
Tuning
D A D G B E
*************************************************************************************************************

                                                Paramore - Part II
                                 Album: Paramore / Self-Titled Deluxe [2013/2014]

*************************************************************************************************************

Tuning: Drop D, DADGBe



[Intro]

  Guitar 1
e|--------------------------------------------------------------------------------------------------|
B|--------------------------------------------------------------------------------------------------|
G|--------------------------------------------------------------------------------------------------|
D|------------12-----------------12-----------------12-----------------12-----------------12--------|
A|-------10--------10-------10--------10-------10--------10-------10--------10-------10--------10---|
D|---8------------------8------------------8------------------8------------------8------------------|

e|----------------------------------------------------------------------------------------------------|
B|----------------------------------------------------------------------------------------------------|
G|----------------------------------------------------------------------------------------------------|
D|-------------12-------------------12----------------12-----------------12-----------------12--------|
A|--------10--------10--------10--------10-------10--------10-------10--------10-------10--------10---|
D|---10------------------10------------------8------------------8------------------8------------------|

e|--------------------------------------------------------------------------------------------------------|
B|------------------------------------11-------------------11------------------5----------------10--------|
G|--------------------------------------------------------------------------------------------------------|
D|------------12-----------------12--------12---------12--------12---------5-------5-------10--------10---|
A|-------10--------10-------10------------------10---------------------3---------------8------------------|
D|---8----------------------------------------------------------------------------------------------------|
(4x)

  Guitar 2
e|-------------------------------------------------------------------------------|
B|-----------------------6-6---------------------6-6-6---8-----------------------|
G|---15-15\9/12----------------9---7-----2/5-----------------7/---(~)14---14br---|
D|-------------------------------------------------------------------------------|
A|-------------------------------------------------------------------------------|
D|-------------------------------------------------------------------------------|



[Verse 1]

  Guitar 1
e|--------------------------------------------------------------------------------------------------|
B|--------------------------------------------------------------------------------------------------|
G|--------------------------------------------------------------------------------------------------|
D|------------12-----------------12-----------------12-----------------12-----------------12--------|
A|-------10--------10-------10--------10-------10--------10-------10--------10-------10--------10---|
D|---8------------------8------------------8------------------8------------------8------------------|

e|----------------------------------------------------------------------------------------------------|
B|----------------------------------------------------------------------------------------------------|
G|----------------------------------------------------------------------------------------------------|
D|-------------12-------------------12----------------12-----------------12-----------------12--------|
A|--------10--------10--------10--------10-------10--------10-------10--------10-------10--------10---|
D|---10------------------10------------------8------------------8------------------8------------------|

e|--------------------------------------------------------------------------------------------------------|
B|------------------------------------11-------------------11------------------5----------------10--------|
G|--------------------------------------------------------------------------------------------------------|
D|------------12-----------------12--------12---------12--------12---------5-------5-------10--------10---|
A|-------10--------10-------10------------------10---------------------3---------------8------------------|
D|---8----------------------------------------------------------------------------------------------------|

(2x)   Pause

e|---~8----|
B|---~10---|
G|---~10---|
D|---~8----|
A|---------|
D|---------|   (2x)

 Guitar 2
e|------------------------------------------------------------------------|
B|------------------------------------------------------------------------|
G|------------------------------------------------------------------------|
D|---8-----------10----------8-----------5----------3----------5----------|
A|---8---(24x)---10---(8x)---8---(16x)---5---(8x)---3---(4x)---5---(4x)---|
D|------------------------------------------------------------------------|  (2x)   Pause

e|--------|
B|--------|
G|--------|
D|---~8---|
A|---~8---|
D|--------|



[Chorus]

  Guitar 1
e|---------------------------------------------------|
B|---------------------------------------------------|
G|---------------------------3-----------------------|
D|---0-----------3-----------3-----------5-----------|
A|---0-----------3-----------1---(16x)---5-----------|
D|---0---(16x)---3---(16x)---------------5---(16x)---|   (2x)

  Guitar 2
e|-----------------------------------------------------------------------------------------|
B|-----------------------------------------------------------------------------------------|
G|---7-----------10-----------10----------7-----------7------------------------------------|
D|---7-----------10-----------8-----------5-----------7-----------10----------h12----------|
A|---5---(16x)---8----(16x)---8-----------5-----------5---(16x)---10-----------10----------|
D|----------------------------8---(16x)---5---(16x)---------------10---(8x)----10---(8x)---| 

e|-----------------------------------------------|----------------|
B|-----------------------------------------------|----------------|
G|-----------------------------------------------|---15-15\9/12---|
D|---8--------h10----------5---------h7----------|----------------|
A|---8----------8----------5----------5----------|----------------|
D|---8---(8x)---8--(8x)----5---(8x)---5---(8x)---|----------------|

   Guitar 3
e|---10-----12-----13--------------10-----12-----13------------------|
B|------------------------13br---------------------------13-----11---|
G|-------------------------------------------------------------------|
D|-------------------------------------------------------------------|
A|-------------------------------------------------------------------|
D|-------------------------------------------------------------------| 



[Verse 2]

  Guitar 1
e|--------------------------------------------------------------------------------------------------|
B|--------------------------------------------------------------------------------------------------|
G|--------------------------------------------------------------------------------------------------|
D|------------12-----------------12-----------------12-----------------12-----------------12--------|
A|-------10--------10-------10--------10-------10--------10-------10--------10-------10--------10---|
D|---8------------------8------------------8------------------8------------------8------------------|

e|----------------------------------------------------------------------------------------------------|
B|----------------------------------------------------------------------------------------------------|
G|----------------------------------------------------------------------------------------------------|
D|-------------12-------------------12----------------12-----------------12-----------------12--------|
A|--------10--------10--------10--------10-------10--------10-------10--------10-------10--------10---|
D|---10------------------10------------------8------------------8------------------8------------------|

e|--------------------------------------------------------------------------------------------------------|
B|------------------------------------11-------------------11------------------5----------------10--------|
G|--------------------------------------------------------------------------------------------------------|
D|------------12-----------------12--------12---------12--------12---------5-------5-------10--------10---|
A|-------10--------10-------10------------------10---------------------3---------------8------------------|
D|---8----------------------------------------------------------------------------------------------------|
(3x)   Pause

e|---~8----|
B|---~10---|
G|---~10---|
D|---~8----|
A|---------|
D|---------|   (2x)

 Guitar 2
e|------------------------------------------------------------------------|
B|------------------------------------------------------------------------|
G|------------------------------------------------------------------------|
D|---8-----------10----------8-----------5----------3----------5----------|
A|---8---(24x)---10---(8x)---8---(16x)---5---(8x)---3---(4x)---5---(4x)---|
D|------------------------------------------------------------------------|  (2x)   Pause

e|--------|
B|--------|
G|--------|
D|---~8---|
A|---~8---|
D|--------|



[Chorus]

  Guitar 1
e|---------------------------------------------------|
B|---------------------------------------------------|
G|---------------------------3-----------------------|
D|---0-----------3-----------3-----------5-----------|
A|---0-----------3-----------1---(16x)---5-----------|
D|---0---(16x)---3---(16x)---------------5---(16x)---|   (2x)

  Guitar 2
e|-----------------------------------------------------------------------------------------|
B|-----------------------------------------------------------------------------------------|
G|---7-----------10-----------10----------7-----------7------------------------------------|
D|---7-----------10-----------8-----------5-----------7-----------10----------h12----------|
A|---5---(16x)---8----(16x)---8-----------5-----------5---(16x)---10-----------10----------|
D|----------------------------8---(16x)---5---(16x)---------------10---(8x)----10---(8x)---| 

e|-----------------------------------------------|
B|-----------------------------------------------|
G|-----------------------------------------------|
D|---8--------h10----------5---------h7----------|
A|---8----------8----------5----------5----------|
D|---8---(8x)---8--(8x)----5---(8x)---5---(8x)---| 

  Guitar 3
e|---10-----12-----13--------------10-----12-----13------------------|
B|------------------------13br---------------------------13-----11---|
G|-------------------------------------------------------------------|
D|-------------------------------------------------------------------|
A|-------------------------------------------------------------------|
D|-------------------------------------------------------------------|



[Bridge]

  Guitar 2
e|---------------------------------------------------------------------------------------------------|
B|---------6-6-6---8-----------------------6-6------------------6-6-6---8---------------18---17br\---|
G|---2/5---------------7/---(~)14---14br---------9--7-----2/5---------------7/---(~)14---------------|
D|---------------------------------------------------------------------------------------------------|
A|---------------------------------------------------------------------------------------------------|
D|---------------------------------------------------------------------------------------------------|


e|-----------------------------------------------------------------------------------------------------------|
B|---6-6------------------6-6-6---8----------------------6-6-----------------6-6-6---8---------------18---17-|
G|---------9--7-----2/5----------------7/---(~)14---14br--------9--7-----2/5---------------7/---~14----------|
D|-----------------------------------------------------------------------------------------------------------|
A|-----------------------------------------------------------------------------------------------------------|
D|-----------------------------------------------------------------------------------------------------------|



[Instrumental]

  Guitar 1
e|---------------------------------------------------|
B|---------------------------------------------------|
G|---------------------------3-----------------------|
D|---0-----------3-----------3-----------5-----------|
A|---0-----------3-----------1---(16x)---5-----------|
D|---0---(16x)---3---(16x)---------------5---(16x)---|  (4x)

  Guitar 2
e|-----------------------------------------------------------------------------------------|
B|-----------------------------------------------------------------------------------------|
G|---7-----------10-----------10----------7-----------7------------------------------------|
D|---7-----------10-----------8-----------5-----------7-----------10----------h12----------|
A|---5---(16x)---8----(16x)---8-----------5-----------5---(16x)---10-----------10----------|
D|----------------------------8---(16x)---5---(16x)---------------10---(8x)----10---(8x)---| 

e|-----------------------------------------------|
B|-----------------------------------------------|
G|-----------------------------------------------|
D|---8--------h10----------5---------h7----------|
A|---8----------8----------5----------5----------|
D|---8---(8x)---8--(8x)----5---(8x)---5---(8x)---|   (2x)

  Guitar 3
e|---10-----12-----13------------|      |---10-----12-----13------------------|
B|------------------------13br---|      |-------------------------13-----11---|
G|-------------------------------|      |-------------------------------------|
D|-------------------------------|      |-------------------------------------|
A|-------------------------------|      |-------------------------------------|
D|-------------------------------| (3x) |-------------------------------------| (1x)



[Outro]

  Guitar 3
e|--------|     
B|--------|   
G|--------|     
D|---20---| 
A|--------|  
D|--------|


*************************************************************************************************************

| br  Bend release
| /   Slide up
| \   Slide down
| ~   Vibrato
| h   Hammer-on
*************************************************************************************************************
Suggest correction
Give kudos to tab author, rate the tab!
1 2 3 4 5
comments
print report bad tab
guest
You may want to rate the tab now too:
select rating
Wanna post a correction for this tab? Suggest correction