Oops, an error
Loading. Please wait.

Passionfruit tab

1,837 views 339 this week
3 commentsread comments
1 2 3 4 5
x 4
add to favorites
×
Save as Personal and add changes to this tab that will be seen only by you. Learn more ›
×
You can save this tab as Personal to edit and correct it or add notes. All changes will be seen only by you. Learn more »
launch autoscroll
font size
0
reset
how to read this tab
guitar tuner
edit
Autoscroll
slow
fast
+/-
esc
set tempo
stop
Paramore - Passionfruit (Cover of song by Drake)
Tuning - Standard
tabbed by jjhand

Please rate or comment on this tab. Thanks!

[Intro]

e|----------------------|----------------------|----------------------|----------------------|
B|----------------------|----------------------|----------------------|----------------------|
G|-----8---9-----8---9--|-----8---9-----8---9--|-----8---9-----8---9--|-----8---9-----8---6--|
D|----------------------|----------------------|----------------------|----------------------|
A|----------------------|----------------------|----------------------|----------------------|
E|----------------------|----------------------|----------------------|----------------------|

e|----------------------|----------------------|----------------------|----------------------|
B|----------------------|----------------------|----11--12----11------|----------------------|
G|-----6---8-----6---8--|-----6---8-----6---8--|------------------11--|----11--------13------|
D|----------------------|----------------------|----------------------|--------11--------11--|
A|----------------------|----------------------|----------------------|----------------------|
E|----------------------|----------------------|----------------------|----------------------|



[Verse]

Guitar 1
e|----------------------|----------------------|----------------------|----------------------|
B|----------------------|----------------------|----------------------|----------------------|
G|-----8---9-----8---9--|-----8---9-----8---9--|-----8---9-----8---9--|-----8---9-----8---6--|
D|----------------------|----------------------|----------------------|----------------------|
A|----------------------|----------------------|----------------------|----------------------|
E|----------------------|----------------------|----------------------|----------------------|

e|----------------------|----------------------|----------------------|----------------------|
B|----------------------|----------------------|----11--12----11------|----------------------|
G|-----6---8-----6---8--|-----6---8-----6---8--|------------------11--|----11--------13------|
D|----------------------|----------------------|----------------------|--------11--------11--|
A|----------------------|----------------------|----------------------|----------------------|
E|----------------------|----------------------|----------------------|----------------------|



Guitar 2 - play similarly throughout
e|----------------------|----------------------|----------------------|----------------------|
B|----------------------|----------------------|----------------------|----------------------|
G|-----8---8-----8---8--|-----8---8-----8---8--|-----4---4-----4---4--|-----4---4-----4---4--|
D|----------------------|----------------------|----------------------|----------------------|
A|-7----------7---------|-7----------7---------|-4----------4---------|-4---------4----------|
E|----------------------|----------------------|----------------------|----------------------|

e|----------------------|----------------------|----------------------|----------------------|
B|----------------------|----------------------|----------------------|----------------------|
G|-----6---6-----6---6--|-----6---6-----6---6--|-----11--11----11--11-|-----8---8-----8---8--|
D|----------------------|----------------------|----------------------|----------------------|
A|-6----------6---------|-6----------6---------|-11---------11--------|-7---------7----------|
E|----------------------|----------------------|----------------------|----------------------|



play both parts of Verse 3x, but Guitar 2 changes at 1:01 to this:

e|----------------------|----------------------|----------------------|----------------------|
B|-----9---9-----9---9--|-----9---9-----9---9--|-----5---5-----5---5--|-----5---5-----5---5--|
G|-----8---9-----8---9--|-----8---9-----8---9--|-----4---6-----4---6--|-----4---6-----4---6--|
D|----------------------|----------------------|----------------------|----------------------|
A|----------------------|----------------------|----------------------|----------------------|
E|----------------------|----------------------|----------------------|----------------------|

e|----------------------|----------------------|----------------------|----------------------|
B|-----7---7-----7---7--|-----7---7-----7---7--|-----12--12----12--7--|-----9---9-----9---9--|
G|-----6---8-----6---8--|-----6---8-----6---8--|-----11--13----11--6--|-----8---9-----8---9--|
D|----------------------|----------------------|----------------------|----------------------|
A|----------------------|----------------------|----------------------|----------------------|
E|----------------------|----------------------|----------------------|----------------------|



[Bridge]


Guitar 1:
   Emaj7
e|---------------------------|
B|-9-----9-----9-----9-------|
G|---8-----8-----8-----8-----|  play 2x, similarly
D|-----9-----9-----9-----9---|
A|---------------------------|
E|---------------------------|

   C#min7
e|---------------------------|
B|-5-----5-----5-----5-------|
G|---4-----4-----4-----4-----|  play 2x, similarly
D|-----6-----6-----6-----6---|
A|---------------------------|
E|---------------------------|

   D#min7
e|---------------------------|
B|-7-----7-----7-----7-------|
G|---6-----6-----6-----6-----|  play 2x, similarly
D|-----8-----8-----8-----8---|
A|---------------------------|
E|---------------------------|

   G#min7                                Emaj7
e|-------------------------------------|---------------------------|
B|-12-------12-------12-------12-------|-9-----9-----9-----9-------|
G|----11-------11-------11-------11----|---8-----8-----8-----8-----|
D|-------13-------13-------13-------13-|-----9-----9-----9-----9---|
A|-------------------------------------|---------------------------|
E|-------------------------------------|---------------------------|



Guitar 2:

repeat this pattern throughout chord changes
e|--------------------------------|
B|----------12----------------12--|
G|-------11----11----------11-----|
D|----13----------13----13--------|
A|-11----------------11-----------|
E|--------------------------------|




[Verse 2]

Guitar 1 (1:53)
e|----------------------|----------------------|----------------------|----------------------|
B|----------------------|----------------------|----------------------|----------------------|
G|-----8---9-----8---9--|-----8---9-----8---9--|-----8---9-----8---9--|-----8---9-----8---6--|
D|----------------------|----------------------|----------------------|----------------------|
A|----------------------|----------------------|----------------------|----------------------|
E|----------------------|----------------------|----------------------|----------------------|

e|----------------------|----------------------|----------------------|----------------------|
B|----------------------|----------------------|----11--12----11------|----------------------|
G|-----6---8-----6---8--|-----6---8-----6---8--|------------------11--|----11--------13------|
D|----------------------|----------------------|----------------------|--------11--------11--|
A|----------------------|----------------------|----------------------|----------------------|
E|----------------------|----------------------|----------------------|----------------------|



Guitar 2 - play similarly throughout
e|--------------------------------|
B|-------9--------------9---------|
G|-----8------8-------8-------8---|  play 2x
D|---9------9---9---9-------9---9-|
A|-7--------------7---------------|
E|--------------------------------|

e|---------------------------------|
B|-------5---------------5---------|
G|---4---------4-----4---------4---|  play 2x
D|-6---6-----6-----6---6-----6-----|
A|---------------------------------|
E|---------------------------------|

e|-----------------------6---------|
B|-------7-------------------------|
G|---6---------6-----6---------6---|  play 2x
D|-8---8-----8-----8---8-----8-----|
A|---------------------------------|
E|---------------------------------|

e|---------------------------------------------------|--------------------------------|
B|----------12-----------------------12--------------|-------9--------------9---------|
G|-------11---------11------------11---------11------|-----8------8-------8-------8---|
D|----13---------13----13------13---------13----13---|---9------9---9---9-------9---9-|
A|-11-----------------------11-----------------------|-7--------------7---------------|
E|---------------------------------------------------|--------------------------------|


Play both parts of Verse 2 similarly 4x



[Outro Bridge]

Guitar 1, at (3:04):

   Emaj7
e|---------------------------|
B|-9-----9-----9-----9-------|
G|---8-----8-----8-----8-----|  play 2x, similarly
D|-----9-----9-----9-----9---|
A|---------------------------|
E|---------------------------|

   C#min7
e|---------------------------|
B|-5-----5-----5-----5-------|
G|---4-----4-----4-----4-----|  play 2x, similarly
D|-----6-----6-----6-----6---|
A|---------------------------|
E|---------------------------|

   D#min7
e|---------------------------|
B|-7-----7-----7-----7-------|
G|---6-----6-----6-----6-----|  play 2x, similarly
D|-----8-----8-----8-----8---|
A|---------------------------|
E|---------------------------|

   G#min7                                Emaj7
e|-------------------------------------|---------------------------|
B|-12-------12-------12-------12-------|-9-----9-----9-----9-------|
G|----11-------11-------11-------11----|---8-----8-----8-----8-----|
D|-------13-------13-------13-------13-|-----9-----9-----9-----9---|
A|-------------------------------------|---------------------------|
E|-------------------------------------|---------------------------|



Guitar 2:

repeat this pattern throughout chord changes
e|--------------------------------|
B|----------12----------------12--|
G|-------11----11----------11-----|
D|----13----------13----13--------|
A|-11----------------11-----------|
E|--------------------------------|

Play Outro Bridge 2x similar to end song


************************************

| x   Dead note
| g   Grace note
| (n) Ghost note
| h   Hammer-on
| p   Pull-off
| r   Release
| >   Accented note
| t   Tapping
| b   Bend
| br  Bend release
| pb  Pre-bend
| pbr Pre-bend release
| /   Slide up
| \   Slide down
| ~   Vibrato
| s   Slap
| P   Pop
| PM  Palm mute
| TR  Trill
| N   Tremolo

************************************
Suggest correction
Creating personal tab
Creating personal tab
You can edit any tab online and save it as your Personal.

You can edit, replace or remove any tab part or add personal notes – all changes will be seen only by you.

Personal tabs can be accessed anytime from any device, even offline.
Learn more »
comments
print report bad tab
3 comments total.
0 reply
koolmeme 86 Jul 03, 2017 11:51 PM

thanks so much!

0 reply
stolenreed 10 Jul 15, 2017 04:26 PM

Isn't he playing more than one string in the video?

guest
You may want to rate the tab now too:
select rating
Wanna post a correction for this tab? Suggest correction