Oops, an error
Loading. Please wait.

Playing God Tab

version 1
version 1
199,654 views 114 this week
6 commentsread comments
1 2 3 4 5
x 37
add to favorites
launch autoscroll
font size
0
reset
how to read this tab
guitar tuner
Autoscroll
slow
fast
+/-
esc
set tempo
stop
Help us to improve Ultimate-Guitar.com Take our survey!
×
Author
[Intro]

         2X
e|--------------------|---2---2---2---2---2---2---2---2-----|
B|----4---4---4---5---|-------------------------------------|
G|---4-4-4-4-4-4-4-4--|--4-4-4-4-4-4-4-4-4-4-4-4-4-4-4-4----|
D|--2---2---2---2---2-|-2---2---2---2---2---2---2---1---1---|
A|--------------------|-------------------------------------|
E|--------------------|-------------------------------------|


[Verse]

         2X
e|--------------------|---2---2---2---2---2---2---2---2-----|
B|----4---4---4---5---|-------------------------------------|
G|---4-4-4-4-4-4-4-4--|--4-4-4-4-4-4-4-4-4-4-4-4-4-4-4-4----|
D|--2---2---2---2---2-|-2---2---2---2---2---2---2---1---1---|
A|--------------------|-------------------------------------|
E|--------------------|-------------------------------------|
I can't make my own decisions
or make any with precision.
Well maybe you should tie me up,
so I don't go where you don't want me.
You say that I've been changin'
that I'm not just simply agin'.
yeah How can that be logical?
Just keep on cramming ideas down my throat.

e|---------------------------------------------------------------|
B|---------------------------------------------------------------|
G|--2-2-2-2-2-2-2-2-----4-4-4-4-4-4-4-4-4------------------------|
D|--2-2-2-2-2-2-2-2-----4-4-4-4-4-4-4-4-4------------------------|
A|--0-0-0-0-0-0-0-0-----2-2-2-2-2-2-2-2-2------------------------|
E|---------------------------------------------------------------|
woo oh oohh oh


[Chorus]

(Listen to the Song for the Correct Strumming)

e|--------------------------------------------------------------------------|
B|--------------------------------------------------------------------------|
G|-9-9-9-9-9-9-9-9---6-6-6-6-6-6-6-6---2-2-2-2-2-2-2-2---4-4-4-4-4-4-4-4----|
D|-9-9-9-9-9-9-9-9---6-6-6-6-6-6-6-6---2-2-2-2-2-2-2-2---4-4-4-4-4-4-4-4----|
A|-7-7-7-7-7-7-7-7---4-4-4-4-4-4-4-4---0-0-0-0-0-0-0-0---2-2-2-2-2-2-2-2----|
E|--------------------------------------------------------------------------|

You don't have to believe me
but the way I, way I see it
next time you point a finger
I might have to bend it back

e|-----------------------------------------------------------------|
B|-----------------------------------------------------------------|
G|-----------------------------------------------------------------|
D|-6-6-6-6-6-6-6-6---7-7-7-7-7-7-7-7---7-7-7-7-7-7-7-7---9---------|
A|-6-6-6-6-6-6-6-6---7-7-7-7-7-7-7-7---7-7-7-7-7-7-7-7---9---------|
E|-4-4-4-4-4-4-4-4---5-5-5-5-5-5-5-5---5-5-5-5-5-5-5-5---7---------|

or brake it, brake it off
next time you point a finger
I'll point you to the mirror.


[Instrumental]

e|---------------------1---1---1---1------|
B|----4---4---4---5-----------------------|
G|---4-4-4-4-4-4-4-4-4--4-4-4-4-4-4-4-----|
D|--2---2---2---2---2----2---2---1--------|
A|----------------------------------------|
E|----------------------------------------|


[Verse]

         2X
e--------------------|---2---2---2---2---2---2---2---2-----|
B----4---4---4---5---|-------------------------------------|
G---4-4-4-4-4-4-4-4--|--4-4-4-4-4-4-4-4-4-4-4-4-4-4-4-4----|
D--2---2---2---2---2-|-2---2---2---2---2---2---2---1---1---|
A--------------------|-------------------------------------|
E--------------------|-------------------------------------|

If God's the game that you're playing
Well we must get more acquainted
because it has to be so lonely
to be the only one who's holy.
It's just my humble opinion
but it's one that I believe in.
You don't deserve a point of view
if the only thing you see, is you.

e|------------------------------------------------------------|
B|------------------------------------------------------------|
G|--2-2-2-2-2-2-2-2-----4-4-4-4-4-4-4-4-4---------------------|
D|--2-2-2-2-2-2-2-2-----4-4-4-4-4-4-4-4-4---------------------|
A|--0-0-0-0-0-0-0-0-----2-2-2-2-2-2-2-2-2---------------------|
E|------------------------------------------------------------|
woo oh oohh oh


[Chorus]

e|-----------------------------------------------------------------------------|
B|-----------------------------------------------------------------------------|
G|-9-9-9-9-9-9-9-9---6-6-6-6-6-6-6-6---2-2-2-2-2-2-2-2---4-4-4-4-4-4-4-4-------|
D|-9-9-9-9-9-9-9-9---6-6-6-6-6-6-6-6---2-2-2-2-2-2-2-2---4-4-4-4-4-4-4-4-------|
A|-7-7-7-7-7-7-7-7---4-4-4-4-4-4-4-4---0-0-0-0-0-0-0-0---2-2-2-2-2-2-2-2-------|
E|-----------------------------------------------------------------------------|

You don't have to believe me
but the way I, way I see it
next time you point a finger
I might have to bend it back

e|-------------------------------------------------------------------------------|
B|-------------------------------------------------------------------------------|
G|-------------------------------------------------------------------------------|
D|-6-6-6-6-6-6-6-6---7-7-7-7-7-7-7-7---7-7-7-7-7-7-7-7---9-9-9-9-9-9-9-9---------|
A|-6-6-6-6-6-6-6-6---7-7-7-7-7-7-7-7---7-7-7-7-7-7-7-7---9-9-9-9-9-9-9-9---------|
E|-4-4-4-4-4-4-4-4---5-5-5-5-5-5-5-5---5-5-5-5-5-5-5-5---7-7-7-7-7-7-7-7---------|

or brake it, brake it off
next time you point a finger
I'll point you to the mirror.

e|------------------------------------------------------------------------------|
B|------------------------------------------------------------------------------|
G|-2-2-2-2-2-2-2-2---4-4-4-4-4-4-4-4---6-6-6-6-6-6-6-6--------------------------| 2X
D|-2-2-2-2-2-2-2-2---4-4-4-4-4-4-4-4---6-6-6-6-6-6-6-6---6-6-6-6-6-6-6-6--------|
A|-0-0-0-0-0-0-0-0---2-2-2-2-2-2-2-2---4-4-4-4-4-4-4-4---6-6-6-6-6-6-6-6--------|
E|-------------------------------------------------------4-4-4-4-4-4-4-4--------|

e|--------------------------------------------------------------------------------|
B|--------------------------------------------------------------------------------|
G|-2-2-2-2-2-2-2-2---4-4-4-4-4-4-4-4---6-6-6-6-6-6-6-6----------------------------|
D|-2-2-2-2-2-2-2-2---4-4-4-4-4-4-4-4---6-6-6-6-6-6-6-6---6-6-6-6-6-6-6-6----------|
A|-0-0-0-0-0-0-0-0---2-2-2-2-2-2-2-2---4-4-4-4-4-4-4-4---6-6-6-6-6-6-6-6----------|
E|-------------------------------------------------------4-4-4-4-4-4-4-4----------|

This is the last second chance
(I'll point you to the mirror)
I'm half as good as it gets
(I'll point you to the mirror)

e|----------------------------------------------------------------------------|
B|----------------------------------------------------------------------------|
G|-2-2-2-2-2-2-2-2---4-4-4-4-4-4-4-4---6-6-6-6-6-6-6-6---8-8-8-8-8-8-8-8------|
D|-2-2-2-2-2-2-2-2---4-4-4-4-4-4-4-4---6-6-6-6-6-6-6-6---8-8-8-8-8-8-8-8------|
A|-0-0-0-0-0-0-0-0---2-2-2-2-2-2-2-2---4-4-4-4-4-4-4-4---6-6-6-6-6-6-6-6------|
E|----------------------------------------------------------------------------|

I'm on both sides of the fence
(I'll point you to the mirror)
Without a hint of regret,
I'll hold you to it.

e----|
B----|
G-9--|
D-9--| Let It Ring...
A-7--|
E----|
I know you don't believe me

e|-----------------------------------------------------------|
B|-----------------------------------------------------------|
G|-6-6-6-6-6-6-6-6---2-2-2-2-2-2-2-2---4-4-4-4-4-4-4-4-------|
D|-6-6-6-6-6-6-6-6---2-2-2-2-2-2-2-2---4-4-4-4-4-4-4-4-------|
A|-4-4-4-4-4-4-4-4---0-0-0-0-0-0-0-0---2-2-2-2-2-2-2-2-------|
E|-----------------------------------------------------------|

but the way I, way I see it
next time you point a finger
I might have to bend it back

e|----------------------------------------------------------------------------|
B|----------------------------------------------------------------------------|
G|-------------------6-6---4-4-4-4-4-4---2-2-2-2-2-2-2---4-4-4-4-4-4-4-4------|
D|-6-6-6-6-6-6-6-6---6-6---4-4-4-4-4-4---2-2-2-2-2-2-2---4-4-4-4-4-4-4-4------|
A|-6-6-6-6-6-6-6-6---4-4---2-2-2-2-2-2---0-0-0-0-0-0-0---2-2-2-2-2-2-2-2------|
E|-4-4-4-4-4-4-4-4------------------------------------------------------------|
or brake it, brake it off
next time you point a finger
I'll point you to the mirror.


e|---------------------------------------------------------------------------|
B|---------------------------------------------------------------------------|
G|-9-9-9-9-9-9-9-9---6-6-6-6-6-6-6-6---2-2-2-2-2-2-2-2---4-4-4-4-4-4-4-4-----|
D|-9-9-9-9-9-9-9-9---6-6-6-6-6-6-6-6---2-2-2-2-2-2-2-2---4-4-4-4-4-4-4-4-----|
A|-7-7-7-7-7-7-7-7---4-4-4-4-4-4-4-4---0-0-0-0-0-0-0-0---2-2-2-2-2-2-2-2-----|
E|---------------------------------------------------------------------------|
I know you won't believe me
but the way I, way I see it
next time you point a finger
I might have to bend it back

e|------------------------------------------------------------------------|
B|------------------------------------------------------------------------|
G|------------------------------------------------------------------------|
D|-6-6-6-6-6-6-6-6---7-7-7-7-7-7-7-7---7-7-7-7-7-7-7-7---9-9-9-9-9--------|
A|-6-6-6-6-6-6-6-6---7-7-7-7-7-7-7-7---7-7-7-7-7-7-7-7---9-9-9-9-9--------|
E|-4-4-4-4-4-4-4-4---5-5-5-5-5-5-5-5---5-5-5-5-5-5-5-5---7-7-7-7-7--------|

or brake it, brake it off
next time you point a finger
I'll point you to the mirror.
Suggest correction
comments
print report bad tab
6 comments total. Showing first comments. show 1 bad comment
0 reply
JulieM2535 59 Dec 23, 2009 11:23 PM

Sounds Great!

+1 reply
elmatador13 255 Nov 06, 2010 10:15 AM

its
-------
-------
---4---
--2-2--
-4---4-
-------

guest
You may want to rate the tab now too:
select rating
Wanna post a correction for this tab? Suggest correction