Oops, an error
Loading. Please wait.

Playing God Tab

version 1
version 1
195,511 views 66 this week
6 commentsread comments
1 2 3 4 5
excellent!
x 36
add to favorites
launch autoscroll
font size
0
reset
how to read this tab
guitar tuner
Tab Pro tools
  • play this tab
  • loop segment
  • change instrument
  • show fretboard
  • metronome
×
Best way to learn
"Playing God"
Autoscroll
slow
fast
+/-
esc
set tempo
stop
Contributor
Hi People! This Is Reggae V. Aguilar of San Pedro Laguna and This is my Tab for the 
song "Playing God"
Im Doing This Tab While Chatting With My Bamz ---- AzeL NavaL of California <3
Please Rate!
and send a comment thru my email add so that i can make other tab for paramore songs. 
this is my First Tab ever.!!!
EMAIL ADD: halfbloodlineprince@yahoo.com

Tuning: Standard EBGDAE

Intro:
         2X
e--------------------|---2---2---2---2---2---2---2---2-----|
B----4---4---4---5---|-------------------------------------|
G---4-4-4-4-4-4-4-4--|--4-4-4-4-4-4-4-4-4-4-4-4-4-4-4-4----|
D--2---2---2---2---2-|-2---2---2---2---2---2---2---1---1---|
A--------------------|-------------------------------------|
E--------------------|-------------------------------------|

Verse:
         2X
e--------------------|---2---2---2---2---2---2---2---2-----|
B----4---4---4---5---|-------------------------------------|
G---4-4-4-4-4-4-4-4--|--4-4-4-4-4-4-4-4-4-4-4-4-4-4-4-4----|
D--2---2---2---2---2-|-2---2---2---2---2---2---2---1---1---|
A--------------------|-------------------------------------|
E--------------------|-------------------------------------|
I can't make my own decisions
or make any with precision.
Well maybe you should tie me up,
so I don't go where you don't want me.
You say that I've been changin'
that I'm not just simply agin'.
yeah How can that be logical?
Just keep on cramming ideas down my throat.

e----------------------------------------|
B----------------------------------------|
G--22222222--444444444-------------------|
D--22222222--444444444-------------------|
A--00000000--222222222-------------------|
E----------------------------------------|
woo oh oohh oh

Chorus: --Listen to the Song for the Correct Strumming--

e----------------------------------------|
B----------------------------------------|
G-99999999-66666666-22222222-44444444----|
D-99999999-66666666-22222222-44444444----|
A-77777777-44444444-00000000-22222222----|
E----------------------------------------|

You don't have to believe me
but the way I, way I see it
next time you point a finger
I might have to bend it back

e-----------------------------------|
B-----------------------------------|
G-----------------------------------|
D-66666666-77777777-77777777-9------|
A-66666666-77777777-77777777-9------|
E-44444444-55555555-55555555-7------|

or brake it, brake it off
next time you point a finger
I'll point you to the mirror.

Play Intro:
e---------------------1---1---1---1------|
B----4---4---4---5-----------------------|
G---4-4-4-4-4-4-4-4-4--4-4-4-4-4-4-4-----|
D--2---2---2---2---2----2---2---1--------|
A----------------------------------------|
E----------------------------------------|

2nd Verse:
         2X
e--------------------|---2---2---2---2---2---2---2---2-----|
B----4---4---4---5---|-------------------------------------|
G---4-4-4-4-4-4-4-4--|--4-4-4-4-4-4-4-4-4-4-4-4-4-4-4-4----|
D--2---2---2---2---2-|-2---2---2---2---2---2---2---1---1---|
A--------------------|-------------------------------------|
E--------------------|-------------------------------------|

If God's the game that you're playing
Well we must get more acquainted
because it has to be so lonely
to be the only one who's holy.
It's just my humble opinion
but it's one that I believe in.
You don't deserve a point of view
if the only thing you see, is you.

e----------------------------------------|
B----------------------------------------|
G--22222222--444444444-------------------|
D--22222222--444444444-------------------|
A--00000000--222222222-------------------|
E----------------------------------------|
woo oh oohh oh

Chorus:

e----------------------------------------|
B----------------------------------------|
G-99999999-66666666-22222222-44444444----|
D-99999999-66666666-22222222-44444444----|
A-77777777-44444444-00000000-22222222----|
E----------------------------------------|

You don't have to believe me
but the way I, way I see it
next time you point a finger
I might have to bend it back

e-----------------------------------------|
B-----------------------------------------|
G-----------------------------------------|
D-66666666-77777777-77777777-99999999-----|
A-66666666-77777777-77777777-99999999-----|
E-44444444-55555555-55555555-77777777-----|

or brake it, brake it off
next time you point a finger
I'll point you to the mirror.

e-----------------------------------------|
B-----------------------------------------|
G-22222222-44444444-66666666--------------| 2X
D-22222222-44444444-66666666-66666666-----|
A-00000000-22222222-44444444-66666666-----|
E----------------------------44444444-----|

e-----------------------------------------|
B-----------------------------------------|
G-22222222-44444444-66666666--------------|
D-22222222-44444444-66666666-66666666-----|
A-00000000-22222222-44444444-66666666-----|
E----------------------------44444444-----|

This is the last second chance
(I'll point you to the mirror)
I'm half as good as it gets
(I'll point you to the mirror)

e-----------------------------------------|
B-----------------------------------------|
G-22222222-44444444-66666666-88888888-----|
D-22222222-44444444-66666666-88888888-----|
A-00000000-22222222-44444444-66666666-----|
E-----------------------------------------|

I'm on both sides of the fence
(I'll point you to the mirror)
Without a hint of regret,
I'll hold you to it.

e----|
B----|
G-9--|
D-9--| Let It Ring...
A-7--|
E----|
I know you don't believe me

e-------------------------------|
B-------------------------------|
G-66666666-22222222-44444444----|
D-66666666-22222222-44444444----|
A-44444444-00000000-22222222----|
E-------------------------------|

but the way I, way I see it
next time you point a finger
I might have to bend it back

e-----------------------------------------|
B-----------------------------------------|
G----------66-444444-2222222-44444444-----|
D-66666666-66-444444-2222222-44444444-----|
A-66666666-44-222222-0000000-22222222-----|
E-44444444--------------------------------|
or brake it, brake it off
next time you point a finger
I'll point you to the mirror.


e----------------------------------------|
B----------------------------------------|
G-99999999-66666666-22222222-44444444----|
D-99999999-66666666-22222222-44444444----|
A-77777777-44444444-00000000-22222222----|
E----------------------------------------|
I know you won't believe me
but the way I, way I see it
next time you point a finger
I might have to bend it back

e--------------------------------------|
B--------------------------------------|
G--------------------------------------|
D-66666666-77777777-77777777-99999-----|
A-66666666-77777777-77777777-99999-----|
E-44444444-55555555-55555555-77777-----|

or brake it, brake it off
next time you point a finger
I'll point you to the mirror.
comments
print report bad tab
6 comments total. Showing first comments.
-2 reply
doobidoo wrote on October 18 2009, 06:24 am

konting effort pa....try mo ver3..heheh,,,

0 reply
JulieM2535 wrote on December 23 2009, 11:23 pm

Sounds Great!

+1 reply
elmatador13 wrote on November 6 2010, 10:15 am

its
-------
-------
---4---
--2-2--
-4---4-
-------

I want to post or [tab]
guest
You may want to rate the tab now too:
select rating
Please do not post tabs as comments. Select "correction" instead!