Oops, an error
Loading. Please wait.
We have an official Playing God tab made by UG professional guitarists. Check out the tab »
×
55,203 views 12 this week
5 commentsread comments
1 2 3 4 5
x 19
add to favorites
×
Save as Personal and add changes to this tab that will be seen only by you. Learn more ›
×
You can save this tab as Personal to edit and correct it or add notes. All changes will be seen only by you. Learn more »
launch autoscroll
font size
0
reset
how to read this tab
guitar tuner
edit
Autoscroll
slow
fast
+/-
esc
set tempo
stop
Author
Tabbers playing skills
advanced +
PLS LIKE OUR BAND FAN PAGE @ FACEBOOK - https://www.facebook.com/SinceAstrid

Tabbed By Francis Twister
From Paramore Philippines(PARAWHORE)

Tuning- Standard
Intro-
GtrI
a.
|---------------------------------|--------------------------------|
|---------------------------------|--------------------------------|
|-----4-------4-------4-------4---|-----4-------4-------4------4---|
|---2---2---2---2---2---2---2---2-|---2---2---2---2---2---2---2--2-|
|-4-------4-------4-------2-------|-4-------4-------4-------2------|
|---------------------------------|--------------------------------|

b.
|---------------------------------|--------------------------------|
|-----0-------0-------0-------0---|-----0-------0-------0-------0--|
|---1---1---1---1---1---1---1---1-|---1---1---1---1---1---1---1--1-|
|-2-------2-------2-------1-------|-2-------2-------1-------1------|
|---------------------------------|--------------------------------|
|---------------------------------|--------------------------------|

or
a.then this
|---------------------------------|---------------------------------|
|---------------------------------|---------------------------------|
|-----4-------4-------4-------4---|-----4-------4-------4-------4---|
|---6---6---6---6---6---6---6---6-|---6---6---6---6---6---6---6---6-| 
|-7-------7-------7-------6-------|-7-------7-------6-------6-------|
|---------------------------------|---------------------------------|

GtrII
|---------------------------------|--------------------------------|
|---------------------------------|--------------------------------|
|-----8-------8-------8-------9---|-----8-------8-------8-------9--|
|---6---6---6---6---6---6---6---6-|---6---6---6---6---6---6---6--6-|
|-7-------7-------7-------6-------|-7-------7-------7-------6------|
|---------------------------------|--------------------------------|

|---------------------------------|--------------------------------|
|---------------------------------|--------------------------------|
|-----11------11------11------11--|-----11------11------11-----11--|
|---9---9---9---9---9---9---9---9-|---9---9---9---9---9---9---9--9-|
|-11-----11------11------11-------|-11-----11------11------11------|
|---------------------------------|--------------------------------|

Verse-Do intro

Pre-Chorus
GtrI
|--------------------------------|
|--------------------------------|
|--6-6-6-6-6-6-6-6-8-8--8-8-8----|
|--------------------------------|
|--4-4-4-4-4-4-4-4-6-6--6-6-6----|
|--------------------------------|
   * * * * * * * * * * 
GtrII
|--------------------------------|
|--------------------------------|
|--6-6-6-6-6-6-6-6-8-8--8-8-8----|
|--7-7-7-7-7-7-7-7-9-9--9-9-9----|
|--7-7-7-7-7-7-7-7-9-9--9-9-9----|
|--5-5-5-5-5-5-5-5-7-7--7-7-7----|
   * * * * * * * * * *   

Chorus-

GtrI
|--------------------------------------------------|
|--------------------------------------------------|
|-9/11-9/11-9--9/11-9/11-9------66-666-6-88-888-8--|
|---------------------------2x---------------------|
|-7/9--7/9--7--7/9--7/9--7------44-444-4-66-666-6--|
|--------------------------------------------------|

|-------------------------------x-----------------------|
|-------------------------------x-----------------------|
|-44-444-4-66-666-6-66-666-6-8--x-----------------------|
|-------------------------------x-----------------------|
|-22-222-2-44-444-4-44-444-4-6--x-----------------------|
|-------------------------------x-----------------------|
GtrII
|--------------------------------------------------------|
|--------------------------------------------------------|
|-11-111-1-11-111-1--66-666-666-666-6-66-666-6-88-888-8--|
|-22-222-2-22-222-2--66-666-666-666-6-77-777-7-99-999-9--|
|-22-222-2-22-222-2--44-444-444-444-4-77-777-7-99-999-9--|
|-00-000-0-00-000-0-------------------55-555-5-77-777-7--|

|------------------------------x-------------------------|
|------------------------------x-------------------------|
|----------66-666-6-66-666-6-8-x-------------------------|
|-66-666-6-77-777-7-77-777-7-9-x-------------------------|
|-66-666-6-77-777-7-77-777-7-9-x-------------------------|
|-44-444-4-55-555-5-55-555-5-7-x-------------------------|

then...
GtrI
|---------------------------------|--------------------------------|
|---------------------------------|--------------------------------|
|-----4-------4-------4-------4---|-----4-------4-------4------4---|
|---2---2---2---2---2---2---2---2-|---2---2---2---2---2---2---2--2-|
|-4-------4-------4-------2-------|-0-------0-------0-------2------|
|---------------------------------|--------------------------------|

GtrII
|---------------------------------|--------------------------------|
|---------------------------------|--------------------------------|
|-----8-------8-------8-------9---|-----11------11------11-----11--|
|---6---6---6---6---6---6---6---6-|---9---9---9---9---9---9---9--9-|
|-7-------7-------7-------6-------|-11-----11------11------11------|
|---------------------------------|--------------------------------|

Do verse-

Chorus-
GtrI
|--------------------------------------------------|
|--------------------------------------------------|
|-9/11-9/11-9--9/11-9/11-9------66-666-6-88-888-8--|
|---------------------------2x---------------------|
|-7/9--7/9--7--7/9--7/9--7------44-444-4-66-666-6--|
|--------------------------------------------------|

|-------------------------------------------------------|
|-------------------------------------------------------|
|-44-444-4-66-666-6-66-666-6-8-8-8-8-8-8-8-8------------|
|-------------------------------------------------------|
|-22-222-2-44-444-4-44-444-4-6-6-6-6-6-6-6-6------------|
|-------------------------------------------------------|
GtrII
|--------------------------------------------------------|
|--------------------------------------------------------|
|-11-111-1-11-111-1--66-666-666-666-6-66-666-6-88-888-8--|
|-22-222-2-22-222-2--66-666-666-666-6-77-777-7-99-999-9--|
|-22-222-2-22-222-2--44-444-444-444-4-77-777-7-99-999-9--|
|-00-000-0-00-000-0-------------------55-555-5-77-777-7--|

|--------------------------------------------------------|
|--------------------------------------------------------|
|----------66-666-6-66-666-6-8-8-8-8-8-8-8-8-------------|
|-66-666-6-77-777-7-77-777-7-9-9-9-9-9-9-9-9-------------|
|-66-666-6-77-777-7-77-777-7-9-9-9-9-9-9-9-9-------------|
|-44-444-4-55-555-5-55-555-5-7-7-7-7-7-7-7-7-------------|

Interlude-
GtrI
|---------------------------------------------------------------------|
|---------------------------------------------------------------12----|
|-6-6-6-6-6-6-6-6-8-8-8-8-8-8-8-8-9-9-9-9-9-9-9-9--111111-9-8-9---9---|
|-7-7-7-7-7-7-7-7-9-9-9-9-9-9-9-9-1111111111111111-111111-------------|
|---------------------------------------------------------------------|
|---------------------------------------------------------------------|

|---------------------------------------------------------------------|
|---------------------------------------------------------------------|
|-6-6-6-6-6-6-6-6-8-8-8-8-8-8-8-8-9-9-9-9-9-9-9-9--111111-8-8-8-8-8---|
|-7-7-7-7-7-7-7-7-9-9-9-9-9-9-9-9-1111111111111111-111111-9-9-9-9-9---|
|---------------------------------------------------------------------|
|---------------------------------------------------------------------|

GtrII
|---------------------------------------------------------------------|
|---------------------------------------------------------------------|
|--6-6-6-6-6-6-6-6-8-8-8-8-8-8-8-8-9-9-9-9-9-9-9-9--------------------|
|--7-7-7-7-7-7-7-7-9-9-9-9-9-9-9-9-1111111111111111-6-6-6-6-6-6-6-6---|2x
|--7-7-7-7-7-7-7-7-9-9-9-9-9-9-9-9-1111111111111111-6-6-6-6-6-6-6-6---|
|--5-5-5-5-5-5-5-5-7-7-7-7-7-7-7-7-9-9-9-9-9-9-9-9--4-4-4-4-4-4-4-4---|


Bridge-

GtrI
|---------------------------------------------------------------------|
|---------------------------------------------------------------12----|
|-6-6-6-6-6-6-6-6-8-8-8-8-8-8-8-8-9-9-9-9-9-9-9-9--111111-9-8-9---9---|
|-7-7-7-7-7-7-7-7-9-9-9-9-9-9-9-9-1111111111111111-111111-------------|
|---------------------------------------------------------------------|
|---------------------------------------------------------------------|

|---------------------------------------------------------------------|
|-121212121212-10-10-99999999-121212121212-14-14-9999-----------------|
|------------------------------------------------------11111111--9~---|
|---------------------------------------------------------------------|
|---------------------------------------------------------------------|
|---------------------------------------------------------------------|

GtrII
|---------------------------------------------------------------------|
|---------------------------------------------------------------------|
|--6-6-6-6-6-6-6-6-8-8-8-8-8-8-8-8-9-9-9-9-9-9-9-9--------------------|
|--7-7-7-7-7-7-7-7-9-9-9-9-9-9-9-9-1111111111111111-6-6-6-6-6-6-6-6---|then B
|--7-7-7-7-7-7-7-7-9-9-9-9-9-9-9-9-1111111111111111-6-6-6-6-6-6-6-6---|
|--5-5-5-5-5-5-5-5-7-7-7-7-7-7-7-7-9-9-9-9-9-9-9-9--4-4-4-4-4-4-4-4---|



Chorus-

GtrI
|----------------------------------------------------------------------|
|----------------------------------------------------------------------|
|---------------------9/11-9/11-9--9/11-9/11-9------66666666-88888888--|
|----------------------------------------------------------------------|
|---------------------7/9--7/9--7--7/9--7/9--7------44444444-66666666--|
|----------------------------------------------------------------------|

|-------------------------------------------------------------------|
|-------------------------------------------------------------------|
|-44444444-66--99-88888---6-6-6-6-6-6-6-6-8-8-8-8-8-8-8-8-----------|
|-------------------------------------------------------------------|
|-22222222-44--77-66666---4-4-4-4-4-4-4-4-6-6-6-6-6-6-6-6-----------|
|-------------------------------------------------------------------|

GtrII
|--------------------------------------------------------|
|--~-----------------------------------------------------|
|-1~-----------------6666666666666666-66666666-88888888--|
|-2~-----------------6666666666666666-77777777-99999999--|
|-2~-----------------4444444444444444-77777777-99999999--|
|-0~----------------------------------55555555-77777777--|

|------------------------------------------------------------------|
|------------------------------------------------------------------|
|-----------66-44444--6-6-6-6-6-6-6-6-6-8-8-8-8-8-8-8-8------------|
|-66666666--66-44444--7-7-7-7-7-7-7-7-7-9-9-9-9-9-9-9-9------------|
|-66666666--44-22222--7-7-7-7-7-7-7-7-7-9-9-9-9-9-9-9-9------------|
|-44444444------------5-5-5-5-5-5-5-5-5-7-7-7-7-7-7-7-7------------|

Do Chorus
End B

            
            
Suggest correction
Creating personal tab
Creating personal tab
You can edit any tab online and save it as your Personal.

You can edit, replace or remove any tab part or add personal notes – all changes will be seen only by you.

Personal tabs can be accessed anytime from any device, even offline.
Learn more »
comments
print report bad tab
5 comments total. Showing first comments.
0 reply
supersario 64 Oct 15, 2009 03:51 AM

5/5 good job ,,

+3 reply
harstar 10 Oct 21, 2009 07:52 AM

i find it easier to play the 4th fret (g) and strum open together with an upstroke so you don't have to change the picking pattern too much and it gives it a slightly brighter tone, which i prefer!! just thought i'd mention it, just see what you prefer :D great tab!! this whole album has been tabbed well i think

|---------------------------------|
|-----0-------0-------0-------0---|
|----(4)-----(4)-----(4)-----(4)--|
|---6---6---6---6---6---6---6---6-| x2
|-7-------7-------7-------6-------|
|---------------------------------|

0 reply
mikegreenwood 41 Mar 14, 2010 10:35 AM

|---------------------------------|
|-----4-------4-------4-------4---|
|-----4-------4-------4-------4---| x2
|---2---2---2---2---2---2---2---2-|
|-4-------4-------4-------4-------|
|---------------------------------|

|---------------------------------|
|-----4-------4-------4-------4---|
|-----4-------4-------4-------4---| x2
|---6---6---6---6---6---6---6---6-|
|-7-------7-------7-------6-------|
|---------------------------------|

I'm almost 100% sure that that is how the intro goes.

guest
You may want to rate the tab now too:
select rating
Wanna post a correction for this tab? Suggest correction