Oops, an error
Loading. Please wait.

Pool bass

797 views 36 this week
no commentswrite comment
1 2 3 4 5
1 last vote to show rating
add to favorites
×
Save as Personal and add changes to this tab that will be seen only by you. Learn more ›
×
You can save this tab as Personal to edit and correct it or add notes. All changes will be seen only by you. Learn more »
launch autoscroll
font size
0
reset
guitar tuner
edit
Autoscroll
slow
fast
+/-
esc
set tempo
stop
Pool - Paramore-
Tabbed by: Asa Wentworth
Email: asawentworth@yahoo.com

[Intro]
0:25
G|---------------------------------------------------------------------------|
D|---------------------------------------------------------------------------|
A|--------------------------3--3--3--3---------------------------------------|
E|--1--1--1--1--1--1--1--1--------------3--3--3--3---------------------------|

G|---------------------------------------------------------------------------|
D|---------------------------------------------------------------------------|
A|--------------------------3--3--3--3---------------------------------------|
E|--1--1--1--1--1--1--1--1--------------3--3--3--3-5-------------------------|

[Verse]
0:42
"...first cut..."
G|---------------------------------------------------------------------------|
D|---------------------------------------------------------------------------|
A|--------------------------3--3--3--3---------------------------------------|
E|--1--1--1--1--1--1--1--1--------------3--3--3--3---------------------------|

G|---------------------------------------------------------------------------|
D|---------------------------------------------------------------------------|
A|--------------------------3--3--3--3---------------------------------------|
E|--1--1--1--1--1--1--1--1--------------3--3--3--3-5-------------------------|

[Pre-Chorus]
0:58
"...you..."
G|---------------------------------------------------------------------------|
D|---------------------------------------------------------------------------|
A|--------------------------3--3--3--3---------------------------------------|
E|--1--1--1--1--1--1--1--1--------------3--3--3--3-5-3-----------------------|

G|---------------------------------------------------------------------------|
D|---------------------------------------------------------------------------|
A|--------------------------3--3--3--3\--------------------------------------|
E|--1--1--1--1--1--1--1--1--------------3--3--3------------------------------|

[Chorus]
"I'm underwater..."
1:15
G|---------------------------------------------------------------------------|
D|---------------------------------------------------------------------------|
A|--3-3-3-3------------------------------------------------------------------| (x2)
E|-----------3-3--3-3-3--1-1-1-1--1-1--1-1-1---------------------------------|

G|---------------------------------------------------------------------------|
D|---------------------------------------------------------------------------|
A|--3-3-3-3--7-7--7-7-7--8-8-8-8--8-8--8-8-8---------------------------------|
E|---------------------------------------------------------------------------|

G|---------------------------------------------------------------------------|
D|---------------------------------------------------------------------------|
A|--3-3-3-3------------------------------------------------------------------|
E|-----------3-3--3-3-3--1--1--1--1------------------------------------------|
Hope this pattern makes sense, it's a lot easier to get when listening to the song 

[Verse]
1:35
"As if the..."
G|---------------------------------------------------------------------------|
D|---------------------------------------------------------------------------|
A|---------------------------------------------------------------------------|
E|--/////--------------------------------------------------------------------|

1:36
"...first blood..."
G|---------------------------------------------------------------------------|
D|---------------------------------------------------------------------------|
A|--------------------------3--3--3--3---------------------------------------|
E|--1--1--1--1--1--1--1--1--------------3--3--3--1-3-5-----------------------|

G|---------------------------------------------------------------------------|
D|---------------------------------------------------------------------------|
A|--------------------------3--3--3--3---------------------------------------|
E|--1--1--1--1--1--1--1--1--------------3--3--3------------------------------|

[Pre-Chorus]
1:53
"I wonder..."
G|---------------------------------------------------------------------------|
D|---------------------------------------------------------------------------|
A|--------------------------3--3--3--3---------------------------------------|
E|--1--1--1--1--1--1--1--1--------------3--3--x-3-3-x-3-5--------------------|

G|---------------------------------------------------------------------------|
D|---------------------------------------------------------------------------|
A|--------------------------3--3--3--3\--------------------------------------|
E|--1--1--1--1--1--1--1--1---------------------------------------------------|

[Chorus]
"I'm underwater..."
2:09
G|---------------------------------------------------------------------------|
D|---------------------------------------------------------------------------|
A|--3-3-3-3------------------------------------------------------------------| (x2)
E|-----------3-3--3-3-3--1-1-1-1--1-1--1-1-1---------------------------------|

G|---------------------------------------------------------------------------|
D|---------------------------------------------------------------------------|
A|--3-3-3-3--7-7--7-7-7--8-8-8-8--8-8--8-8-8---------------------------------|
E|---------------------------------------------------------------------------|

G|---------------------------------------------------------------------------|
D|---------------------------------------------------------------------------|
A|--3-3-3-3------------------------------------------------------------------|
E|-----------3-3--3-3-3--1--1--1--1------------------------------------------|

[Bridge]
2:30
"Dive back into..."
G|---------------------------------------------------------------------------|
D|---------------------------------------------------------------------------|
A|--------------------------------------3-3-3--3-3-x-3-3---------------------|
E|--1-1-1--1-1-x-1-1--1-1-1--1-1-x-1-1--------------------3-3-3--3-3-x-3-3---|

G|---------------------------------------------------------------------------|
D|--------------------------------------------------------10--12-------------|
A|--------------------------------------3-3-3--3-3-x-3-3----------12--10-----|
E|--1-1-1--1-1-x-1-1--1-1-1--1-1-x-1-1---------------------------------------|

G|---------------------------------------------------------------------------|
D|---------------------------------------------------------------------------|
A|--------------------------------------3-3-3--3-3-x-3-3---------------------|
E|--1-1-1--1-1-x-1-1--1-1-1--1-1-x-1-1--------------------3-3-3--x-3h5-3h5---|

G|---------------------------------------------------------------------------|
D|--------------------------------------------------------10--12-------------|
A|--------------------------------------3-3-3--3-3-x-3-3----------12--10-----|
E|--1-1-1--1-1-x-1-1--1-1-1--1-1-x-1-1---------------------------------------|

[Chorus]
"I'm underwater..."
3:08
G|---------------------------------------------------------------------------|
D|---------------------------------------------------------------------------|
A|--3-3-3-3------------------------------------------------------------------|
E|-----------3-3--3-3-3--1-1-1-1--1-1--1-1-1---------------------------------|

G|---------------------------------------------------------------------------|
D|---------------------------------------------------------------------------|
A|--3-3-3-3------------------------------------------------------------------|
E|-----------3-3--3-3-3--1-1-1-1--1-1--3-5-3---------------------------------|

G|---------------------------------------------------------------------------|
D|---------------------------------------------------------------------------|
A|--3-3-3-3--7-7--7-7----8-8-8-8--8-8--8-8-8---------------------------------|
E|--------------------8------------------------------------------------------|

G|---------------------------------------------------------------------------|
D|---------------------------------------------------------------------------|
A|--3-3-3-3---------------------8--8-----------------------------------------|
E|-----------3-3--3-3-3--1--1-/----------------------------------------------|

"I'm underwater..."
3:25
G|---------------------------------------------------------------------------|
D|---------------------------------------------------------------------------|
A|--3-3-3-3------------------------------------------------------------------| 
E|-----------3-3--3-3-3--1-1-1-1--1-1--1-1-1---------------------------------|

G|---------------------------------------------------------------------------|
D|---------------------------------------------------------------------------|
A|--3-3-3-3---------------------------7-7-7----------------------------------| 
E|-----------3-3--3-3-3--1-1-1-1--1-/-------8--------------------------------|

G|---------------------------------------------------------------------------|
D|---------------------------------------------------------------------------|
A|--3-3-3-3--7-7--7-7----8-8-8-8--8-8--8-8-8---------------------------------|
E|--------------------8------------------------------------------------------|

G|---------------------------------------------------------------------------|
D|---------------------------------------------------------------------------|
A|--3-3-3-3---------------------------8-\-----10-8---------------------------|
E|-----------3-3--3-3-3--1--1--1--1-/-----1-/------8-10-5-3------------------|


************************************

| x   Dead note
| h   Hammer-on
| p   Pull-off
| /   Slide up
| \   Slide down

************************************
Suggest correction
Creating personal tab
Creating personal tab
You can edit any tab online and save it as your Personal.

You can edit, replace or remove any tab part or add personal notes – all changes will be seen only by you.

Personal tabs can be accessed anytime from any device, even offline.
Learn more »
Give kudos to tab author, rate the tab!
1 2 3 4 5
comments
print report bad tab
guest
You may want to rate the tab now too:
select rating
Wanna post a correction for this tab? Suggest correction