Oops, an error
Loading. Please wait.

Rose-Colored Boy tab

1,384 views 213 this week
2 commentsread comments
1 2 3 4 5
x 5
add to favorites
×
Save as Personal and add changes to this tab that will be seen only by you. Learn more ›
×
You can save this tab as Personal to edit and correct it or add notes. All changes will be seen only by you. Learn more »
launch autoscroll
font size
0
reset
how to read this tab
guitar tuner
edit
Autoscroll
slow
fast
+/-
esc
set tempo
stop
#----------------------------------PLEASE NOTE---------------------------------#
 This file is the author's own work and represents their interpretation of the  
 song. You may only use this file for private study, scholarship, or research. 
 IF THIS WILL BE USED FOR COVER SONG FOR(YOUTUBE,ANY SITE)Pls include the TABS' 
                       LINK IN THE VIDEO DESCPITION.
#------------------------------------------------------------------------------#
Paramore     : Rose-Colored Boy Tab
Transcriber :  Francis Sario
Site        :  https://www.facebook.com/francistwister.sario




[Intro]

e|--xxx-10-10-x-8--8--xxx-10-10-x-8--8--|-----------------------------------------|
B|--xxx-10-10-x-10-10-xxx-10-10-x-10-10-|-----------------------------------------|
G|--xxx-------x-------xxx-------x-------|-7-7-7---7--10-9-7-----------------7-----|
D|--xxx-------x-------xxx-------x-------|-------7------------101010-7-10--10--10--|
A|--------------------------------------|-----------------------------------------|
E|--------------------------------------|-----------------------------------------|

e|------10-10-x-8--8--xxx-10-10-x-13-13-|-----------------------------------------|
B|------10-10-x-10-10-xxx-10-10-x-13-13-|-----------------------------------------|
G|------------x-------xxx-------x-------|-7-7-7-9-7--10-9-7-----------------7-10--|
D|------------x-------xxx-------x-------|-------------------101010-7-10--10-------|
A|----8---------------------------------|-----------------------------------------|
E|--------------------------------------|-----------------------------------------|

[Verse]
Left SG
e|---------------|--------------|--------------|---------------|
B|---------------|--------------|--------------|---------------|
G|---------------|--------------|--------------|-------3-2-----|
D|----7-10-----7-|---7-10-----7-|----7-3-----3-|---3-5-----3---|
A|--8------8-8---|-8------8-8---|--5-----5-5---|-3-------------|
E|---------------|--------------|--------------|---------------|

e|---------------|--------------|--------------|---------------|
B|---------------|--------------|--------------|---------------|
G|---------------|--------------|--------------|-------3-2-----|
D|----7-10-----7-|---7-10-----7-|----7-------7-|---3-5-----5---|
A|--8------8-8---|-8------8-8---|--5---8-5-5---|-3-------------|
E|---------------|--------------|--------------|---------------|

[Refrain]
Left SG
e|-------------------------------------------|-----------------------------------------------------|
B|-------------------------------------------|-----------------------------------------------------|
G|-------------------------------------------|-----------------------------------------------------|
D|-------------------------------------------|-----------------------------------------------------|
A|-88-88-88-88-8-8-1010-1010-1010-1010-10-10-|-1212-1212-1212-1212-12-12-1010-1010-1010-1010-10-10-|
E|-------------------------------------------|-----------------------------------------------------|

e|-------------------------------------------|-----------------------------------------------------|
B|-------------------------------------------|-----------------------------------------------------|
G|-------------------------------------------|-----------------------------------------------------|
D|-------------------------------------------|-----------------------------------------------------|
A|-88-88-88-88-8-8-1010-1010-1010-1010-10-10-|-1212-1212-1212-1212-12-12--77--77--77--77-7-7-------|
E|-------------------------------------------|-----------------------------------------------------|

Right SG
e|-------------------------------------------|-----------------------------------------------------|
B|-------------------------------------------|-----------------------------------------------------|
G|--101010-999-777---------------------------|--101010-999-777-------------------------------------|
D|-----------------101010-888-777-555-777----|-----------------101010-888-777--5-5-3---------------|
A|-------------------------------------------|-----------------------------------------------------|
E|-------------------------------------------|-----------------------------------------------------|

e|-------------------------------------------|-----------------------------------------------------|
B|-------------------------------------------|-----------------------------------------------------|
G|--101010-999-777---------------------------|--101010-999-777-------------------------------------|
D|-----------------101010-888-777-888-101010-|-----------------101010-888-777--5-5-----------------|
A|-------------------------------------------|-----------------------------------------------------|
E|-------------------------------------------|-----------------------------------------------------|



[Chorus]
  F            Am           Bb                        F          Am           Bb         C
e|----8----8---8--8---8-8------8----8---8--8---8-8--|----8----8--8--8---8-8------8----8--8-8--8-8-|
B|-1010-1010---8--8---8-8---1010-1010---8--8---8-8--|-1010-1010--8--8---8-8---1010-1010--8-8--8-8-|
G|-1010-1010---10-10--1010--1010-1010---10-10--1010-|-1010-1010--10-10--1010--1010-1010--9-9--9-9-|
D|--------------------------------------------------|---------------------------------------------|
A|--------------------------------------------------|---------------------------------------------|
E|--------------------------------------------------|---------------------------------------------|
    Bb           C               Bb           C
e|----8---8-6666---8----8-8888-|---8---8-6666---8----8-8888-------------------|
B|--6-6-6-6-6666-8-8--8-8-8888-|-6-6-6-6-6666-8-8--8-8-8888-------------------|
G|--7-7-7-7-7777-9-9--9-9-9999-|-7-7-7-7-7777-9-9--9-9-9999-------------------|
D|-----------------------------|----------------------------------------------|
A|-----------------------------|----------------------------------------------|
E|-----------------------------|----------------------------------------------|


e|--xxx-10-10-x-8--8--xxx-10-10-x-8--8--|-----------------------------------------|  --------------|
B|--xxx-10-10-x-10-10-xxx-10-10-x-10-10-|-----------------------------------------|  ----55-8-6----|
G|--xxx-------x-------xxx-------x-------|-7-7-7---7--10-9-7-----------------------|  -55-----------|
D|--xxx-------x-------xxx-------x-------|-------7------------101010-7-10----------|  --------------|
A|--------------------------------------|-----------------------------------------|  --------------|
E|--------------------------------------|-----------------------------------------|  --------------|
                                                                                      ** ** * *

[Verse II]
Left SG

e|---------------|--------------|--------------|---------------|
B|---------------|--------------|--------------|---------------|
G|---------------|--------------|--------------|---------------|
D|----7-10-----7-|---7-10-----7-|--------------|---------------|
A|--8------8-8---|-8------8-8---|--------------|---------------|
E|---------------|--------------|--------------|---------------|

e|---------------|--------------|--------------|---------------|
B|---------------|--------------|--------------|---------------|
G|---------------|--------------|--------------|---------------|
D|----7-10-----7-|---7-10-----7-|--------------|---------------|
A|--8------8-8---|-8------8-8---|--------------|---------------|
E|---------------|--------------|--------------|---------------|

Right SG[1:32}
e|--------------------------------------------------------------------------|
B|--------10---10/----------------------------------------------------------|
G|--------10---10/----------------------------------------------------------|
D|--------10---10/----------------------------------------------------------|
A|--------8-----8/----------------------------------------------------------|
E|--------------------------------------------------------------------------|

Keys?{1:25} {1:33)
e|--10-12-13-12-10---------10-12-13-12-10-----------------------------------|
B|-----------------10-10-------------------10-10----------------------------|
G|--------------------------------------------------------------------------|
D|--------------------------------------------------------------------------|
A|--------------------------------------------------------------------------|
E|--------------------------------------------------------------------------|

[Refrain]
Left SG (Palm Muted)
e|---------------------------------------|-----------------------------------------------------|
B|---------------------------------------|-----------------------------------------------------|
G|---------------------------------------|-----------------------------------------------------|
D|--------------------------------77-----|-------------------------------------------77--------|
A|-5555555555555555-7777777777777----77--|-8888888888888888-101010101010101010101010----77-----|
E|---------------------------------------|-----------------------------------------------------|

e|-------------------------------------------|-----------------------------------------------------|
B|-------------------------------------------|-----------------------------------------------------|
G|-------------------------------------------|-----------------------------------------------------|
D|-------------------------------------------|-----------------------------------------------------|
A|-8888888888888888-101010101010101010101010-|-12121212121212121212121212121212-7777777777777777---|
E|-------------------------------------------|-----------------------------------------------------|

Right SG (Palm Muted)
e|---------------------------------------------------------------------------|
B|---------------------------------------------------------------------------|
G|---------------------------------------------------------------------------|
D|------------------------------------------------------------------------10-|
A|-8(16x)--10(16x)--12(16x)--10(16x)----8(16x)--10(16x)--8(16x)--10(16x)--10-|
E|------------------------------------------------------------------------8--|

Repeat Chorus

Pre Bridge

e|------13--------13---------12----------12-13-------------------------------|
B|----15--------15--------13-----13----13------------------------------------|
G|--14-------14--------12-----------12---------------------------------------|
D|---------------------------------------------------------------------------|
A|---------------------------------------------------------------------------|
E|---------------------------------------------------------------------------|


Bridge
Left SG
e|---------------------|------------------|-----------------|------------------|
B|---------------------|------------------|-----------------|------------------|
G|---------------------|------------------|-----------------|------------------|
D|-------------------5-|----------------5-|-7p5-----------5-|----------------5-|
A|-8h10p8----------8---|-8h10---------8---|-----8p5-----8---|-7h8----------8---|
E|-------h10-6-xxx-----|-----xx-8-xxx-----|--------6-xxx----|-----xx-8-xxx-----|

Right SG (24x) means 24 times picked
e|---------------------------------------------------------------------------|
B|---------------------------------------------------------------------------|
G|---------------------------------------------------------------------------|
D|---------------------------------------------------------------------------|
A|-5(24x)-8(8x)------8(8x)---5(24x)-8(8x)-7(16x)-----------------------------|
E|-------------8(24x)--------------------------------------------------------|

DO CHORUS 2x

************************************

| x   Dead note
| g   Grace note
| (n) Ghost note
| h   Hammer-on
| p   Pull-off
| r   Release
| >   Accented note
| t   Tapping
| b   Bend
| br  Bend release
| pb  Pre-bend
| pbr Pre-bend release
| /   Slide up
| \   Slide down
| ~   Vibrato
| s   Slap
| P   Pop
| PM  Palm mute
| TR  Trill
| N   Tremolo

************************************
Suggest correction
Creating personal tab
Creating personal tab
You can edit any tab online and save it as your Personal.

You can edit, replace or remove any tab part or add personal notes – all changes will be seen only by you.

Personal tabs can be accessed anytime from any device, even offline.
Learn more »
comments
print report bad tab
2 comments total.
+1 reply
zjpdarkblaze12 10 Jun 19, 2017 03:39 AM

nice

guest
You may want to rate the tab now too:
select rating
Wanna post a correction for this tab? Suggest correction