Oops, an error
Loading. Please wait.
We have an official Still Into You tab made by UG professional guitarists. Check out the tab »
×
56,299 views 51 this week
2 commentsread comments
1 2 3 4 5
x 13
add to favorites
×
Save as Personal and add changes to this tab that will be seen only by you. Learn more ›
×
You can save this tab as Personal to edit and correct it or add notes. All changes will be seen only by you. Learn more »
launch autoscroll
font size
0
reset
how to read this tab
guitar tuner
edit
Autoscroll
slow
fast
+/-
esc
set tempo
stop
Paramore's new single Still Into You tabbed by JTSBmusic 

Song: Still Into You 
Album: Paramore
Release: April 9, 2013

My cover of this song: https://www.youtube.com/watch?v=1Y7mZsWXe_o
(So you could get an idea how it sounds to)

If you have any questions send me a PM.

By the way this is my first tab I've ever done :)


Tuning: Drop D

[Verse]

E------------------------------------------------|
B------------------------------------------------|
G------------------------------------------------| 
D---------2---------2-------------2---------2----|
A-----0-3-------0-3---3-------0-3-------0-3---3--|
D-3-3-------3-3----------3--3-------3-3----------|

----------------------------------------------------------|
----------------------------------------------------------|
----------------------------------------------------------| REPEAT
----------2------------2--------------2------------2------|   2X
5-5--0--3----5-5--0--3----3-5-5--0--3----5-5--0--3----3---|
----------------------------------------------------------|

Can't count the years one hand
That we've been together
I need the other one to hold you.
Make you feel, make you feel better.
It's not a walk in the park
To love each other.
But when our fingers interlock,
Can't deny, can't deny you're worth it

Pre Chorus: Palm Mute

E---------------------------------------------------------|
B---------------------------------------------------------|
G---------------------------------------------------------|
D-3--------3-3-3-3-3-3-3-5-5-5-5-5-5-5-5-1010101010101010-|
A-11111111---------------3-3-3-3-3-3-3-3-8-8-8-8-8-8-8-8--|
D---------------------------------------------------------|

Cause after all this time.
I'm still into you


[Chorus]

E---------------------------------------------------------------------------------------|
B-------------------------------------------------------6-6-6-6-6-6-6-6-----------------|
G-3--------3-3-3-3-3-3-3-5-5-5-5-5-5-5-5----------------5-5-5-5-5-5-5-5-----------------|  Repeat 
D-3--------3-3-3-3-3-3-3-5-5-5-5-5-5-5-5-3-3-3-3-3-3-3-3----------------3-3-3-3-3-3-3-3-|    X2
A-11111111---------------3-3-3-3-3-3-3-3-3-3-3-3-3-3-3-3----------------3-3-3-3-3-3-3-3-|
D----------------------------------------3-3-3-3-3-3-3-3----------------3-3-3-3-3-3-3-3-|

I should be over all the butterflies
But i'm into you (I'm in to you)
And baby even on our worst nights
I'm into you (I'm into you)


E----------------------------------------------------------|
B---1111--11----1313----13-----1515----15-1111111111111111-|
G---1010--10----1212----12-----1414----14-1010101010101010-|
D-888888888-10101010101010-12121212121212------------------|
A-888888888-10101010101010-12121212121212-8-8-8-8-8-8-8-8--|
D-888888888-10101010101010-12121212121212------------------|


----------------------------------|
----------------------------------|
----------------------------------|
-8-8-8-8-8-8-8-8-10<--------------|
-8-8-8-8-8-8-8-8-10<--------------|
-8-8-8-8-8-8-8-8-10<--------------|

Let em wonder how we got this far
Cause I don't really need to wonder at all
Yeah after all this time
I'm still into you

Short Verse:

E-------------------------------------|
B-------------------------------------|
G-------------------------------------| Fancy slide down to 3rd fret
D---------2---------2-------------2---|
A-----0-3-------0-3---3-------0-3-----|
D-3-3-------3-3----------3--3-------3-|


[Verse]

E------------------------------------------------|
B------------------------------------------------|
G------------------------------------------------| 
D---------2---------2-------------2---------2----|
A-----0-3-------0-3---3-------0-3-------0-3---3--|
D-3-3-------3-3----------3--3-------3-3----------|

---------------------------------------------------------|
---------------------------------------------------------|
---------------------------------------------------------| REPEAT
----------2------------2--------------2------------2-----|   2X
5-5--0--3----5-5--0--3----3-5-5--0--3----5-5--0--3----3--|
---------------------------------------------------------|

Recount the night that I first
Met your mother
And on the drive back to my house
I told you that, I told you that I loved ya.
You felt the weight of the world
Fall off your shoulder
And to your favorite song
We sang along to the start of forever


Pre Chorus: Palm Mute

E---------------------------------------------------------|
B---------------------------------------------------------|
G---------------------------------------------------------|
D-3--------3-3-3-3-3-3-3-5-5-5-5-5-5-5-5-1010101010101010-|
A-11111111---------------3-3-3-3-3-3-3-3-8-8-8-8-8-8-8-8--|
D---------------------------------------------------------|

And after all this time.
I'm still into you


[Chorus]

E---------------------------------------------------------------------------------------|
B-------------------------------------------------------6-6-6-6-6-6-6-6-----------------|
G-3--------3-3-3-3-3-3-3-5-5-5-5-5-5-5-5----------------5-5-5-5-5-5-5-5-----------------|  Repeat 
D-3--------3-3-3-3-3-3-3-5-5-5-5-5-5-5-5-3-3-3-3-3-3-3-3----------------3-3-3-3-3-3-3-3-|    X2
A-11111111---------------3-3-3-3-3-3-3-3-3-3-3-3-3-3-3-3----------------3-3-3-3-3-3-3-3-|
D----------------------------------------3-3-3-3-3-3-3-3----------------3-3-3-3-3-3-3-3-|

I should be over all the butterflies
But i'm into you (I'm in to you)
And baby even on our worst nights
I'm into you (I'm into you)

E----------------------------------------------------------|
B---1111--11----1313----13-----1515----15-1111111111111111-|
G---1010--10----1212----12-----1414----14-1010101010101010-|
D-888888888-10101010101010-12121212121212------------------|
A-888888888-10101010101010-12121212121212-8-8-8-8-8-8-8-8--|
D-888888888-10101010101010-12121212121212------------------|


-----------------------------------|
-----------------------------------|
-----------------------------------|
-8-8-8-8-8-8-8-8-1010101010101010<-|
-8-8-8-8-8-8-8-8-1010101010101010<-|
-8-8-8-8-8-8-8-8-1010101010101010<-|

Let em wonder how we got this far
Cause I don't really need to wonder at all
Yeah after all this time
I'm still into you

Instrumental/Interlude:

E------------------------------------|
B------------------------------------|
G------------------------------------| REPEAT
D-----3-2-------3-2------------------|   4X
A---------3---------3------------3---|
D-3-3-------3-3-------0------2-3-----|

Some things just,
Some things just make sense
And one of those is you and I
Some things just,
Some things just make sense
And even after all this time

Pre Chorus: Palm Mute

E---------------------------------------------------------|
B---------------------------------------------------------|
G---------------------------------------------------------| REPEAT
D-3--------3-3-3-3-3-3-3-5-5-5-5-5-5-5-5-1010101010101010-|   X2
A-11111111---------------3-3-3-3-3-3-3-3-8-8-8-8-8-8-8-8--| 
D---------------------------------------------------------|

(Alternative) Pre Chorus:

E------------------------------------|
B--6-6-6-6--8-8-8-8---13--13--13--13-|
G-3-3-3-3--5-5-5-5--10--10--10--10---| REPEAT
D------------------------------------|   X2
A------------------------------------|
D------------------------------------|

I'm into You
Baby not a day goes by that
I'm not into you


[Chorus]

E---------------------------------------------------------------------------------------|
B-------------------------------------------------------6-6-6-6-6-6-6-6-----------------|
G-3--------3-3-3-3-3-3-3-5-5-5-5-5-5-5-5----------------5-5-5-5-5-5-5-5-----------------|  Repeat 
D-3--------3-3-3-3-3-3-3-5-5-5-5-5-5-5-5-3-3-3-3-3-3-3-3----------------3-3-3-3-3-3-3-3-|    X2
A-11111111---------------3-3-3-3-3-3-3-3-3-3-3-3-3-3-3-3----------------3-3-3-3-3-3-3-3-|
D----------------------------------------3-3-3-3-3-3-3-3----------------3-3-3-3-3-3-3-3-|
should be over all the butterflies
But i'm into you (I'm in to you)
And baby even on our worst nights
I'm into you (I'm into you)

E----------------------------------------------------------|
B---1111--11----1313----13-----1515----15-1111111111111111-|
G---1010--10----1212----12-----1414----14-1010101010101010-|
D-888888888-10101010101010-12121212121212------------------|
A-888888888-10101010101010-12121212121212-8-8-8-8-8-8-8-8--|
D-888888888-10101010101010-12121212121212------------------|


-------------------------------------------------------------------|
-------------------------------------------------------------------|
-------------------------------------------------------------------|
-8-8-8-8-8-8-8-8-1010101010101010-8-8-8-8-8-8-8-8-1010101010101010-|
-8-8-8-8-8-8-8-8-1010101010101010-8-8-8-8-8-8-8-8-1010101010101010-|
-8-8-8-8-8-8-8-8-1010101010101010-8-8-8-8-8-8-8-8-1010101010101010-|


--------------------------------|
--------------------------------|
--------------------------------|
-88888888-1010101010101010--(3)-|
-88888888-1010101010101010--(3)-|
-88888888-1010101010101010--(3)-|

Let em wonder how we got this far
Cause I don't really need to wonder at all
Yeah after all this time
I'm still into you
I'm still into you
I'm still into you

END



************************************

| (n)  Ghost note  

************************************

            
            
Suggest correction
Creating personal tab
Creating personal tab
You can edit any tab online and save it as your Personal.

You can edit, replace or remove any tab part or add personal notes – all changes will be seen only by you.

Personal tabs can be accessed anytime from any device, even offline.
Learn more »
comments
print report bad tab
2 comments total.
0 reply
jdt8312 10 Jul 01, 2015 08:50 AM

Either there is a typo, or you have some very large hands. 8 and 1 together?

guest
You may want to rate the tab now too:
select rating
Wanna post a correction for this tab? Suggest correction