Oops, an error
Loading. Please wait.
We have an official Thats What You Get tab made by UG professional guitarists. Check out the tab »
×
28,300 views 6 this week
2 commentsread comments
1 2 3 4 5
x 3
add to favorites
×
Save as Personal and add changes to this tab that will be seen only by you. Learn more ›
×
You can save this tab as Personal to edit and correct it or add notes. All changes will be seen only by you. Learn more »
launch autoscroll
font size
0
reset
guitar tuner
backing track
0:00
0:00
edit
Autoscroll
slow
fast
+/-
esc
set tempo
stop
Intro:
0:00
|---------------------------------| 
|---------------------------------|
|---------------------------------|
|-6-6-6--6-6-6--8-8-8--10-10-10-8-| x2

Verse:
0:11  no sir...
|-------------------------------| 
|-------------------------------|
|-------------------------------|
|-6-6-6--6-6-6--8-8-8--10-10-10-| x2

0:22 and why do we like to hurt so much
|---------------------------------|
|---------------------------------|
|---------------------------------|
|-6-6-6--6-6-6--8-8-8--10-10-10-8-|

0:28 i can't decide...
|----------------------------------| 
|----------------------------------|
|----------------------------------|
|-6-6-6--6-6-6--8-8-8--10-10-10----| x2

Prechorus
0:39
|------|
|------|
|------|
|-1~~--| 

Chorus:
0:42 that's what you get...
|---------------------------------------------------------------------|
|---------------------------------------------------------------------|
|-------------------33333333-11111111-------------------1111111111111-|
|-66666666-11111111------------------66666666-11111111----------------|

0:57 i drowned out all my....
|-----------------------------------|
|-----------------------------------|
|-33333333-11111111-3333333-1111111-|
|-----------------------------------|

1:04 and that's what you get...
|---------------------------------|
|---------------------------------|
|-------------------1111111111111-|
|-66666666-11111111---------------|

Into again:
1:17
|---------------------------------| 
|---------------------------------|
|---------------------------------|
|-6-6-6--6-6-6--8-8-8--10-10-10-8-|

Verse:
1:23 i wonder...
|---------------------------------------------------------------| 
|---------------------------------------------------------------|
|---------------------------------------------------------------|
|-6-6-6--6-6-6--8-8-8--10-10-10/13/6-6-6--6-6-6--8-8-8--10-10-10|

|-----------------------------------------------------------------| 
|-----------------------------------------------------------------|
|-----------------------------------------------------------------|
|-6-6-6--6-6-6--8-8-8--10-10-10--6-6-6--6-6-6--8-8-8--10-10-10/13-|

Prechorus:
1:45 
|------|
|------|
|------|
|-/1~~-| (slide from 13)

Chorus:
1:49 that's what you get...
|---------------------------------------------------------------------|
|---------------------------------------------------------------------|
|-------------------33333333-11111111-------------------1111111111111-|
|-66666666-11111111------------------66666666-11111111----------------|


 2:03 i drowned out all my....
|-----------------------------------|
|-----------------------------------|
|-33333333-11111111-3333333-1111111-|
|-----------------------------------|

2:10 and that's what you get
|---------------------------------------------------------------------|
|---------------------------------------------------------------------|
|-------------------11111111------------------------------------------|
|-66666666-11111111----------1111111----------------------------------|

Bridge:
2:18 pain make your way...
|-------------------------------|
|-------------------------------|
|-------------------------------|
|-6-6-6--6-6-6--8-8-8--10-10-10-| x4

Intro again:
2:40 why do we like...
|---------------------------------|
|---------------------------------|
|---------------------------------|
|-6-6-6--6-6-6--8-8-8--10-10-10-8-| x2

After group vocals before chorus:
2:54 whoa...
|-----------------|
|-----------------|
|-777777777777777-|
|-----------------|

Chorus:
2:58 that's what you get...
|---------------------------------------------------------------------|
|---------------------------------------------------------------------|
|-------------------33333333-11111111-------------------1111111111111-|
|-66666666-11111111------------------66666666-11111111----------------|

3:13 now i can't trust....
|-----------------------------------|
|-----------------------------------|
|-33333333-11111111-3333333-1111111-|
|-----------------------------------|


3:19 and that's what you get
|---------------------------------------------------------------------|
|---------------------------------------------------------------------|
|-------------------33333333-11111111---------------------------------|
|-66666666-11111111-------------------6-6-6--6-6-6--1~~---------------|





            
            
Suggest correction
Creating personal tab
Creating personal tab
You can edit any tab online and save it as your Personal.

You can edit, replace or remove any tab part or add personal notes – all changes will be seen only by you.

Personal tabs can be accessed anytime from any device, even offline.
Learn more »
Give kudos to tab author, rate the tab!
1 2 3 4 5
comments
print report bad tab
2 comments total.
0 reply
RIOTbass23 51 Jul 20, 2008 10:35 AM

I MADE THIS TAB AND ACCIDENTLY PUT DROP C#!! ITS DROP D PEOPLE!!!

0 reply
MusicMan24 1,124 Jul 20, 2009 09:57 AM

Well, its wrong, this song is in Db

guest
Wanna post a correction for this tab? Suggest correction