Oops, an error
Loading. Please wait.
We have an official Thats What You Get tab made by UG professional guitarists. Check out the tab »
×
608,789 views 159 this week
51 commentsread comments
1 2 3 4 5
x 135
add to favorites
×
Save as Personal and add changes to this tab that will be seen only by you. Learn more ›
×
You can save this tab as Personal to edit and correct it or add notes. All changes will be seen only by you. Learn more »
launch autoscroll
font size
0
reset
how to read this tab
guitar tuner
backing track
0:00
0:00
edit
Autoscroll
slow
fast
+/-
esc
set tempo
stop
That's What You get - Paramore

This is my first time making a tab... I just do hope that this is accurate....
Okay I've updated it now... sorry for the wait!!! :)


Legend: x=dead note
        *=palm Mute

Tuning: Drop D



[Intro:]

Lead:

e|--------------------------------------------------------------------------|
B|--------------------------------------------------------------------------|
G|----------10-12----------12-15----------15-17-----------------------------|
D|-10-10-10-------10-10-10-------12-12-12-------17-17-17-15------Two-Times--|
A|--------------------------------------------------------------------------|
D|--------------------------------------------------------------------------|

Rhythm:

e|--------------------------------------------------------------------------|
B|--------------------------------------------------------------------------|
G|--------------------------------------------------------------------------|
D|-6-6-6-xxxx-6-6-6-xxxx-8-8-8-xxxx-10-10-10-8------------------------------|
A|-6-6-6-xxxx-6-6-6-xxxx-8-8-8-xxxx-10-10-10-8------Two-Times---------------|
D|-6-6-6-xxxx-6-6-6-xxxx-8-8-8-xxxx-10-10-10-8------------------------------|


[Verse]

Lead:

on the verse part, I do believe that this is the right one except that the way of 
is different...

e|-6---|-6---|-6---|-6---|
B|-6---|-6---|-6---|-6---|
G|-7---|-7---|-7---|-7---|  so on this part the first strum would be on the
D|-----|-----|-----|-----|  upward then after that would be downward...Also
A|-----|-----|-----|-----|  there's an effect that's with a delay and phaser
D|-----|-----|-----|-----|  that's how I listened to it

e|--------------------------------------------------------------------------|
B|--------------------------------------------------------------------------|
G|----------10-12----------12-15----------15-17-----------------------------|
D|-10-10-10-------10-10-10-------12-12-12-------17-17-17-15------Two-Times--|
A|--------------------------------------------------------------------------|
D|--------------------------------------------------------------------------|

e|-6---|-6---|-6---|-6---|
B|-6---|-6---|-6---|-6---|
G|-7---|-7---|-7---|-7---|  These are for the verses
D|-----|-----|-----|-----|
A|-----|-----|-----|-----|
D|-----|-----|-----|-----|

Rhythm

Palm Mute

e|--------------------------------------------------------|
B|--------------------------------------------------------|
G|--------------------------------------------------------|  Two Times
D|-6-6-6--6-6-6--8-8-8--10-10-10--------------------------|
A|-6-6-6--6-6-6--8-8-8--10-10-10--------------------------|
E|-6-6-6--6-6-6--8-8-8--10-10-10--------------------------|
   * * *  * * *  * * *  *  *  *
e|--------------------------------------------------------------------------|
B|--------------------------------------------------------------------------|
G|--------------------------------------------------------------------------|
D|-6-6-6-xxxx-6-6-6-xxxx-8-8-8-xxxx-10-10-10-8------------------------------|
A|-6-6-6-xxxx-6-6-6-xxxx-8-8-8-xxxx-10-10-10-8------Two-Times---------------|
D|-6-6-6-xxxx-6-6-6-xxxx-8-8-8-xxxx-10-10-10-8------------------------------|

e|--------------------------------------------------------|
B|--------------------------------------------------------|
G|--------------------------------------------------------|  Two Times
D|-6-6-6--6-6-6--8-8-8--10-10-10--------------------------|
A|-6-6-6--6-6-6--8-8-8--10-10-10--------------------------|
D|-6-6-6--6-6-6--8-8-8--10-10-10--------------------------|
   * * *  * * *  * * *  *  *  *


[Pre Chorus]

Lead

e|-------|
B|-------|
G|---8---|
D|---8---|   let it ring
A|---6---|
D|-------|

Rhythm:

e|-------|
B|-------|
G|-------|
D|---1---|  let it ring
A|---1---|
D|---1---|


[Chorus]

Lead:
(That's what you get... heart win)
e|-1515-----1515--------------------1515-----1515----1313-----1313------|
B|-----1616------1616-15-16-15-----------1616----1616----1111------1111-|
G|----------------------------15----------------------------------------|
D|----------------------------------------------------------------------|
A|----------------------------------------------------------------------|
D|----------------------------------------------------------------------|

Note: 1111= it means eleven and eleven maybe you'll get confused
(That's what you get.... heart win)
e|-15-15-----15-15--------------------13-13-----13-13-----------------|
B|-----16-16------16-16-15-16-15-----------11-11-----11-11------------|
G|------------------------------15------------------------------------|
D|--------------------------------------------------------------------|
A|--------------------------------------------------------------------|
D|--------------------------------------------------------------------|

*note: this happens on the second chorus and the last chorus
(I Drowned all....beating/I can't trust....anything but this)
e|--------------------------------------------------------------------|
B|-------------1111---------------------------------------1111--------|
G|88-1010-1212------121212--101010101010-----88-1010-1212------10(x8)-|
D|--------------------------------------------------------------------|
A|--------------------------------------------------------------------|
D|--------------------------------------------------------------------|

(That's what you get.... heart win whoa...)
e|-15-15-----15-15--------------------13-13-----13-13-----------------|
B|-----16-16------16-16-15-16-15-----------11-11-----11-11------------|
G|------------------------------15------------------------------------|
D|--------------------------------------------------------------------|
A|--------------------------------------------------------------------|
D|--------------------------------------------------------------------|

Rhythm:

e|-------------------------------------|
B|-------------------------------------|
G|--------------555555-33333-----------|
D|-66666-11111--555555-33333-----------|
A|-66666-11111--333333-11111-----------|
D|-66666-11111-------------------------|

e|----------------------------------|
B|----------------------------------|
G|---------------33333333-----------|
D|-66666-11111---33333333-----------|
A|-66666-11111---11111111-----------|
D|-66666-11111----------------------|

(I Drowned all....beating/I can't trust....anything but this)
e|-------------------------------------|
B|-------------------------------------|
G|---555555-33333-555555-33333---------|
D|---555555-33333-555555-33333---------|
A|---333333-11111-333333-11111---------|
D|-------------------------------------|
(That's what you get..... heart win whoa....)
e|----------------------------------|
B|----------------------------------|
G|---------------33333333-----------|
D|-66666-11111---33333333-----------|
A|-66666-11111---11111111-----------|
D|-66666-11111----------------------|


[Interlude]

Lead: Comes after rhythm's first riff

e|--------------------------------------------------------------------------|
B|--------------------------------------------------------------------------|
G|----------10-12----------12-15----------15-17-----------------------------|
D|-10-10-10-------10-10-10-------12-12-12-------17-17-17-15-----------------|
A|--------------------------------------------------------------------------|
D|--------------------------------------------------------------------------|

Rhythm:

e|--------------------------------------------------------------------------|
B|--------------------------------------------------------------------------|
G|--------------------------------------------------------------------------|
D|-6-6-6-xxxx-6-6-6-xxxx-8-8-8-xxxx-10-10-10-8------------------------------|
A|-6-6-6-xxxx-6-6-6-xxxx-8-8-8-xxxx-10-10-10-8------Two-Times---------------|
D|-6-6-6-xxxx-6-6-6-xxxx-8-8-8-xxxx-10-10-10-8------------------------------|


[Verse 2]

Lead is the same in verse one except the intro part

Also the same with Rhythm.... Only use the palm mute

Go back again to the pre-chorus and chorus.


[Bridge]

Lead:

Still the same in the verses but changes.... in
(Why do we lie.... hurt so much)
e|--------------------------------------------------------------------------|
B|--------------------------------------------------------------------------|
G|----------10-12----------12-15----------15-17-----------------------------|
D|-10-10-10-------10-10-10-------12-12-12-------17-17-17-15---two-times-----|
A|--------------------------------------------------------------------------|
D|--------------------------------------------------------------------------|

Rhythm:
(Why..... hurt so much)
e|--------------------------------------------------------------------------|
B|--------------------------------------------------------------------------|
G|--------------------------------------------------------------------------|
D|-6-6-6-xxxx-6-6-6-xxxx-8-8-8-xxxx-10-10-10-8------------------------------|
A|-6-6-6-xxxx-6-6-6-xxxx-8-8-8-xxxx-10-10-10-8------Two-Times---------------|
D|-6-6-6-xxxx-6-6-6-xxxx-8-8-8-xxxx-10-10-10-8------------------------------|

Stop playing in the line
"That's what you get when you let your heart win"
Go back again...

e|----------------------------------|
B|----------------------------------|
G|----------------------------------|
D|-8-8-8-8-8-8-8--------------------|
A|-8-8-8-8-8-8-8--------------------|
D|-8-8-8-8-8-8-8--------------------|
   * * *  * * *
go back to chorus


[Outro]

Both Rhythm and lead

e|--------------------------------------------------------------------------|
B|--------------------------------------------------------------------------|
G|-----------------------8~-------------------------------------------------|
D|-6-6-6-xxxx-6-6-6-xxxx-8~-------------------------------------------------|
A|-6-6-6-xxxx-6-6-6-xxxx-6-~------------------------------------------------|
D|-6-6-6-xxxx-6-6-6-xxxx----------------------------------------------------|

E-mail me at yehchristelle@yahoo.com

            
            
Suggest correction
Creating personal tab
Creating personal tab
You can edit any tab online and save it as your Personal.

You can edit, replace or remove any tab part or add personal notes – all changes will be seen only by you.

Personal tabs can be accessed anytime from any device, even offline.
Learn more »
comments
print report bad tab
51 comments total. Showing first comments.
+3 reply
atake_sorpresa 157 May 02, 2008 01:44 PM

this is actually the real version! i've been searching this tab for a long time and this is really good, exaclty how Josh plays the song :)
thank u so much!!!

+3 reply
atake_sorpresa 157 May 02, 2008 02:00 PM

oh just a thing! it can be this on this part:

Lead Guitar
(I Drowned all....beating/I can't trust....anything but this)
e|--------------------------------------------------------------------|[b]
B|-------------1111---------------------------------------1111--------|[b]
G|88-1010-1212------121212--101010101010-----88-1010-1212------10(x8)-|[b]
D|--------------------------------------------------------------------|[b]
A|--------------------------------------------------------------------|[b]
D|--------------------------------------------------------------------|[b]

0 reply
atake_sorpresa 157 May 02, 2008 02:02 PM

forget the "[b]" LOL 'cuz is the first time i write a tab :P

guest
You may want to rate the tab now too:
select rating
Wanna post a correction for this tab? Suggest correction