Oops, an error
Loading. Please wait.
We have an official Thats What You Get tab made by UG professional guitarists. Check out the tab »
×
2,711 views 1 this week
no commentswrite comment
1 2 3 4 5
2 more votes to show rating
add to favorites
×
Save as Personal and add changes to this tab that will be seen only by you. Learn more ›
×
You can save this tab as Personal to edit and correct it or add notes. All changes will be seen only by you. Learn more »
launch autoscroll
font size
0
reset
how to read this tab
guitar tuner
backing track
0:00
0:00
edit
Autoscroll
slow
fast
+/-
esc
set tempo
stop
Author
Difficulty
That's what you get – Paramore

intro-
E|---------------|------------7--|----------7-9--|---------------|
B|----------7-9--|----------9----|---------------|--9---9-9-7----|
G|--6---6-6------|--6---6-6---4--|--8---8-8-4-6--|---------------|
D|---------4-6---|----------6----|---------------|--6---6-6-4----|
A|--4---4-4------|--4---4-4------|--6---6-6------|---------------|
E|---------------|---------------|---------------|---------------| x2
     1 & 2 & 3 &      1 & 2 & 3 &     1 & 2 & 3 &     1 & 2 & 3 &    

Verse 1-
E|--7---7---7----|--7---7---7----|--7---7---7----|--7---7---7----|
B|--9---9---9----|--7---7---7----|--7---7---7----|--7---7---7----|
G|--9---9---9----|--9---9---9----|--9---9---9----|--9---9---9----|
D|---------------|---------------|---------------|---------------|
A|---------------|---------------|---------------|---------------|
E|---------------|---------------|---------------|---------------| x5
     1 & 2 & 3 &     1 & 2 & 3 &     1 & 2 & 3 &     1 & 2 & 3 &   

Chorus-(change to 4/4 timing)
E|--16-------16-------12----|----12---16----16-14----|--16-------16----12-------|
B|--------12-------16----16-|------------12-------12-|--------12-------------16-|
G|--------------------------|------------------------|--------------------------|
D|--------------------------|------------------------|--------------------------|
A|--------------------------|------------------------|--------------------------|
E|--------------------------|------------------------|--------------------------|
     1  &  2  &  3  &  4  &    1  &  2  &  3  &  4  &    1  &  2  &  3  &  4  &  

E|--12-------14-------14----|-16-------16-------12----|----12---16----16-14----|
B|-----16-------12-12----12-|-------12-------16----16-|------------12-------12-|
G|--------------------------|-------------------------|------------------------|
D|--------------------------|-------------------------|------------------------|
A|--------------------------|-------------------------|------------------------|
E|--------------------------|-------------------------|------------------------|
     1  &  2  &  3  &  4  &    1  &  2  &  3  &  4  &    1  &  2  &  3  &  4  &   

E|--16-------16----12-------|--0-0-0-0-0-0-0--0--|-0-0-0-0-0-0-0-0-|
B|--------12-------------16-|--5-5-7-7-9-9-12-12-|-9-9-9-9-7-7-7-7-|
G|--------------------------|--------------------|-----------------|
D|--------------------------|--------------------|-----------------|
A|--------------------------|--------------------|-----------------|
E|--------------------------|--------------------|-----------------|
     1  &  2  &  3  &  4  &     1 & 2 & 3 & 4  &    1 & 2 & 3 & 4 &   

E|-0-0-0-0-0-0-0--0--|-0-0-0-0-0-0-0-0-|-0-0-0-0-0-0-0--0--|-0-0-0-0-0-0-0---|
B|-5-5-7-7-9-9-12-12-|-9-9-9-9-7-7-7-7-|-5-5-7-7-9-9-12-12-|-7-7-7-7-7-7-7-0-|
G|-------------------|-----------------|-------------------|-----------------|
D|-------------------|-----------------|-------------------|-----------------|
A|-------------------|-----------------|-------------------|-----------------|
E|-------------------|-----------------|-------------------|-----------------|
    1 & 2 & 3 & 4  &    1 & 2 & 3 & 4 &   1 & 2 & 3 & 4  &    1 & 2 & 3 & 4 &

E|-16------16-----------|------------------14-|---------14---------14-|
B|------16-----------16-|----17--16--17-17----|---16-16------16-16----|
G|----------------16----|---------------------|-----------------------|
D|----------------------|---------------------|-----------------------|
A|----------------------|---------------------|-----------------------|
E|----------------------|---------------------|-----------------------|
    1 &  2  &  3 & 4  &     1 & 2 & 3 &  4  &    1 &  2  &  3 &  4  &   

E|-14-------14-----------|
B|----16-16-----16-16-16-|
G|-----------------------|
D|-----------------------|
A|-----------------------|
E|-----------------------|
    1  &  2  & 3 &  4  &   


Interlude-

E|---------------|------------7--|----------7-9--|---------------|
B|----------7-9--|----------9----|---------------|--9---9-9-7----|
G|--6---6-6------|--6---6-6---4--|--8---8-8-4-6--|---------------|
D|---------4-6---|----------6----|---------------|--6---6-6-4----|
A|--4---4-4------|--4---4-4------|--6---6-6------|---------------|
E|---------------|---------------|---------------|---------------| x2
     1 & 2 & 3 &      1 & 2 & 3 &     1 & 2 & 3 &     1 & 2 & 3 &     

Verse 2&3-

E|--7---7---7----|--7---7---7----|--7---7---7----|--7---7---7----|
B|--9---9---9----|--7---7---7----|--7---7---7----|--7---7---7----|
G|--9---9---9----|--9---9---9----|--9---9---9----|--9---9---9----|
D|---------------|---------------|---------------|---------------|
A|---------------|---------------|---------------|---------------|
E|---------------|---------------|---------------|---------------| x8
     1 & 2 & 3 &     1 & 2 & 3 &     1 & 2 & 3 &     1 & 2 & 3 &   

Chorus-(change to 4/4 timing)
   
E|--16-------16-------12----|----12---16----16-14----|--16-------16----12-------|
B|--------12-------16----16-|------------12-------12-|--------12-------------16-|
G|--------------------------|------------------------|--------------------------|
D|--------------------------|------------------------|--------------------------|
A|--------------------------|------------------------|--------------------------|
E|--------------------------|------------------------|--------------------------|
     1  &  2  &  3  &  4  &    1  &  2  &  3  &  4  &    1  &  2  &  3  &  4  &  

E|--12-------14-------14----|-16-------16-------12----|----12---16----16-14----|
B|-----16-------12-12----12-|-------12-------16----16-|------------12-------12-|
G|--------------------------|-------------------------|------------------------|
D|--------------------------|-------------------------|------------------------|
A|--------------------------|-------------------------|------------------------|
E|--------------------------|-------------------------|------------------------|
     1  &  2  &  3  &  4  &    1  &  2  &  3  &  4  &    1  &  2  &  3  &  4  &   

E|--16-------16----12-------|--0-0-0-0-0-0-0--0--|-0-0-0-0-0-0-0-0-|
B|--------12-------------16-|--5-5-7-7-9-9-12-12-|-9-9-9-9-7-7-7-7-|
G|--------------------------|--------------------|-----------------|
D|--------------------------|--------------------|-----------------|
A|--------------------------|--------------------|-----------------|
E|--------------------------|--------------------|-----------------|
     1  &  2  &  3  &  4  &     1 & 2 & 3 & 4  &    1 & 2 & 3 & 4 &   

E|-0-0-0-0-0-0-0--0--|-0-0-0-0-0-0-0-0-|-0-0-0-0-0-0-0--0--|-0-0-0-0-0-0-0---|
B|-5-5-7-7-9-9-12-12-|-9-9-9-9-7-7-7-7-|-5-5-7-7-9-9-12-12-|-7-7-7-7-7-7-7-0-|
G|-------------------|-----------------|-------------------|-----------------|
D|-------------------|-----------------|-------------------|-----------------|
A|-------------------|-----------------|-------------------|-----------------|
E|-------------------|-----------------|-------------------|-----------------|
    1 & 2 & 3 & 4  &    1 & 2 & 3 & 4 &   1 & 2 & 3 & 4  &    1 & 2 & 3 & 4 &

E|-16------16-----------|------------------14-|---------14---------14-|
B|------16-----------16-|----17--16--17-17----|---16-16------16-16----|
G|----------------16----|---------------------|-----------------------|
D|----------------------|---------------------|-----------------------|
A|----------------------|---------------------|-----------------------|
E|----------------------|---------------------|-----------------------|
    1 &  2  &  3 & 4  &     1 & 2 & 3 &  4  &    1 &  2  &  3 &  4  &   

E|-14-------14-----------|
B|----16-16-----16-16-16-|
G|-----------------------|
D|-----------------------|
A|-----------------------|
E|-----------------------|
    1  &  2  & 3 &  4  &   

Interlude-

E|---------------|------------7--|----------7-9--|---------------|
B|----------7-9--|----------9----|---------------|--9---9-9-7----|
G|--6---6-6------|--6---6-6---4--|--8---8-8-4-6--|---------------|
D|---------4-6---|----------6----|---------------|--6---6-6-4----|
A|--4---4-4------|--4---4-4------|--6---6-6------|---------------|
E|---------------|---------------|---------------|---------------| x2
     1 & 2 & 3 &      1 & 2 & 3 &     1 & 2 & 3 &     1 & 2 & 3 &     

Chorus-(change to 4/4 timing)
   
E|--16-------16-------12----|----12---16----16-14----|--16-------16----12-------|
B|--------12-------16----16-|------------12-------12-|--------12-------------16-|
G|--------------------------|------------------------|--------------------------|
D|--------------------------|------------------------|--------------------------|
A|--------------------------|------------------------|--------------------------|
E|--------------------------|------------------------|--------------------------|
     1  &  2  &  3  &  4  &    1  &  2  &  3  &  4  &    1  &  2  &  3  &  4  &  

E|--12-------14-------14----|-16-------16-------12----|----12---16----16-14----|
B|-----16-------12-12----12-|-------12-------16----16-|------------12-------12-|
G|--------------------------|-------------------------|------------------------|
D|--------------------------|-------------------------|------------------------|
A|--------------------------|-------------------------|------------------------|
E|--------------------------|-------------------------|------------------------|
     1  &  2  &  3  &  4  &    1  &  2  &  3  &  4  &    1  &  2  &  3  &  4  &   

E|--16-------16----12-------|--0-0-0-0-0-0-0--0--|-0-0-0-0-0-0-0-0-|
B|--------12-------------16-|--5-5-7-7-9-9-12-12-|-9-9-9-9-7-7-7-7-|
G|--------------------------|--------------------|-----------------|
D|--------------------------|--------------------|-----------------|
A|--------------------------|--------------------|-----------------|
E|--------------------------|--------------------|-----------------|
     1  &  2  &  3  &  4  &     1 & 2 & 3 & 4  &    1 & 2 & 3 & 4 &   

E|-0-0-0-0-0-0-0--0--|-0-0-0-0-0-0-0-0-|-0-0-0-0-0-0-0--0--|-0-0-0-0-0-0-0---|
B|-5-5-7-7-9-9-12-12-|-9-9-9-9-7-7-7-7-|-5-5-7-7-9-9-12-12-|-7-7-7-7-7-7-7-0-|
G|-------------------|-----------------|-------------------|-----------------|
D|-------------------|-----------------|-------------------|-----------------|
A|-------------------|-----------------|-------------------|-----------------|
E|-------------------|-----------------|-------------------|-----------------|
    1 & 2 & 3 & 4  &    1 & 2 & 3 & 4 &   1 & 2 & 3 & 4  &    1 & 2 & 3 & 4 &

E|-16------16-----------|------------------14-|
B|------16-----------16-|----17--16--17-17----|
G|----------------16----|---------------------|
D|----------------------|---------------------|
A|----------------------|---------------------|
E|----------------------|---------------------|
    1 &  2  &  3 & 4  &     1 & 2 & 3 &  4  &     
 

E|-------14------14-|-14-------14------14-|-16----------|-12---------|-0-----|
B|---12------12-----|----12-12-----12-----|-12----------|-12---------|-0-----|
G|------------------|---------------------|-------------|------------|-1-----|
D|------------------|---------------------|-------------|------------|-2-----|
A|------------------|---------------------|-------------|------------|-2-----|
E|------------------|---------------------|-------------|------------|-2-----|
    1 & 2 & 3 & 4 &    1  &  2  & 3 & 4 &    1 & 2 & 3 &   1 & 2 & 3 &  1 2 3

            
            
Suggest correction
Creating personal tab
Creating personal tab
You can edit any tab online and save it as your Personal.

You can edit, replace or remove any tab part or add personal notes – all changes will be seen only by you.

Personal tabs can be accessed anytime from any device, even offline.
Learn more »
Give kudos to tab author, rate the tab!
1 2 3 4 5
comments
print report bad tab
guest
You may want to rate the tab now too:
select rating
Wanna post a correction for this tab? Suggest correction