Oops, an error
Loading. Please wait.
We have Chord Pro version of The Only Exception.
It's the closest thing you can get to the original song and it has interactive parts. Check out the tab »
×
81,314 views 69 this week
no commentswrite comment
1 2 3 4 5
x 8
add to favorites
×
Save as Personal and add changes to this tab that will be seen only by you. Learn more ›
×
You can save this tab as Personal to edit and correct it or add notes. All changes will be seen only by you. Learn more »
launch autoscroll
font size
0
reset
how to read this tab
guitar tuner
backing track
0:00
0:00
edit
Autoscroll
slow
fast
+/-
esc
set tempo
stop
Author
Difficulty
-----------------------------
The Only Exception ~ Paramore
-----------------------------
Tabbed By: Russcool
(I know, pretty lame name)

Part: SOLO (2:34)

Tempo: 72

Timing: 6/8

Tuning: Standard



SOLO

E|-----------------|-----------------|-----------------|-----------------|
B|---9-----7-------|-------7---------|---9-----7-------|-----------------|
G|-----------------|---3-4-----------|-----------------|---3-4-----------|
D|-----------------|-----------------|-----------------|-------4---------|
A|-----------------|-----------------|-----------------|-----------------|
E|-----------------|-----------------|-----------------|-----------------|
     1 + 2 + 3 +       1 + 2 + 3 +       1 + 2 + 3 +       1 + 2 + 3 +

E|-----------------|-----------------|-----------------|-----------------|
B|---9-----7-------|-------7---------|---9-----7-------|-----------------|
G|-----------------|---3-4-----------|-----------------|---3-4-----------|
D|-----------------|-----------------|-----------------|-------4---------|
A|-----------------|-----------------|-----------------|-----------------|
E|-----------------|-----------------|-----------------|-----------------|
     1 + 2 + 3 +       1 + 2 + 3 +       1 + 2 + 3 +       1 + 2 + 3 +



Everything Else Is:

E|---2---2-2-2-2-2---2-2-2-2---|---2---2-2-2-2-2---2-2-2-2---|---2---2-2-2-2-2---2-2-2-2---|
B|---4---4-4-4-4-4---4-4-4-4---|---4---4-4-4-4-4---4-4-4-4---|---2---2-2-2-2-2---2-2-2-2---|
G|---4---4-4-4-4-4---4-4-4-4---|---4---4-4-4-4-4---4-4-4-4---|---3---3-3-3-3-3---3-3-3-3---|
D|---4---4-4-4-4-4---4-4-4-4---|---4---4-4-4-4-4---4-4-4-4---|---4---4-4-4-4-4---4-4-4-4---|
A|---2---2-2-2-2-2---2-2-2-2---|---2---2-2-2-2-2---2-2-2-2---|---4---4-4-4-4-4---4-4-4-4---|
E|-----------------------------|-----------------------------|---2---2-2-2-2-2---2-2-2-2---|
     1   +   2   +   3   +         1   +   2   +   3   +         1   +   2   +   3   + 

E|---0---0-0-0-0-0---0-0-0-0---|
B|---0---0-0-0-0-0---0-0-0-0---|
G|---1---1-1-1-1-1---1-1-1-1---|
D|---2---2-2-2-2-2---2-2-2-2---|
A|---2---2-2-2-2-2---2-2-2-2---|
E|---0---0-0-0-0-0---0-0-0-0---|
     1   +   2   +   3   +



To Make It Simpler:

E|-----------------------------|-----------------------------|-----------------------------|
B|-----------------------------|-----------------------------|-----------------------------|
G|---4---4-4-4-4-4---4-4-4-4---|---4---4-4-4-4-4---4-4-4-4---|-----------------------------|
D|---4---4-4-4-4-4---4-4-4-4---|---4---4-4-4-4-4---4-4-4-4---|---4---4-4-4-4-4---4-4-4-4---|
A|---2---2-2-2-2-2---2-2-2-2---|---2---2-2-2-2-2---2-2-2-2---|---4---4-4-4-4-4---4-4-4-4---|
E|-----------------------------|-----------------------------|---2---2-2-2-2-2---2-2-2-2---|

E|-----------------------------|
B|-----------------------------|
G|-----------------------------|
D|---2---2-2-2-2-2---2-2-2-2---|
A|---2---2-2-2-2-2---2-2-2-2---|
E|---0---0-0-0-0-0---0-0-0-0---|
  (Timed with chords above)





That's pretty much it.
If you liked it, I would really appreciate if you could rate or comment my tab.
So far, I've almost reached 50,000 hits!
This is apparently my most viewed tab yet!
Thank you so much!


/==================================================\
| If you want more of my tabs, search these songs: |
|==================================================|
|Life of a Salesman ~ Yellowcard                   |
|                                                  |
|The Only Exception ~ Paramore                     |
|                                                  |
|When I'm Gone      ~ Simple Plan                  |
|                                                  |
|Magic              ~ Pilot                        |
|                                                  |
|Take Me Away       ~ Plain White Ts               |
|                                                  |
|No Love            ~ Simple Plan                  |
|                                                  |
|One Day            ~ Simple Plan                  |
|                                                  |
|Save You           ~ Simple Plan                  |
|                                                  |
|Only One           ~ Yellowcard                   |
|                                                  |
|Keeper             ~ Yellowcard                   |
\==================================================/


OK, enjoy.
Suggest correction
Creating personal tab
Creating personal tab
You can edit any tab online and save it as your Personal.

You can edit, replace or remove any tab part or add personal notes – all changes will be seen only by you.

Personal tabs can be accessed anytime from any device, even offline.
Learn more »
comments
print report bad tab
guest
You may want to rate the tab now too:
select rating
Wanna post a correction for this tab? Suggest correction