Oops, an error
Loading. Please wait.

Told You So bass

version 1
version 1

Whole song

  • Fixed the timing of the notes on the verse.

Interactive

2,344 views 141 this week
no commentswrite comment
1 2 3 4 5
x 4
add to favorites
×
Save as Personal and add changes to this tab that will be seen only by you. Learn more ›
×
You can save this tab as Personal to edit and correct it or add notes. All changes will be seen only by you. Learn more »
launch autoscroll
font size
0
reset
guitar tuner
edit
Autoscroll
slow
fast
+/-
esc
set tempo
stop
About this tab version
Fixed the timing of the notes on the verse. Was this info helpful? Yes No
[Verse]

   1 ^ + ^ 2 ^ + ^ 3 ^ + ^ 4 ^ + ^   1 ^ + ^ 2 ^ + ^ 3 ^ + ^ 4 ^ + ^
G|---------------------------------|---------------------------------|
D|---------------------------------|---------------------------------|
A|-------------8---8---------------|-5-----5---------5-----5---------|
E|-6-----6-----------------8-------|---------------------------------| x3

   1 ^ + ^ 2 ^ + ^ 3 ^ + ^ 4 ^ + ^   1 ^ + ^ 2 ^ + ^ 3 ^ + ^ 4 ^ + ^
G|---------------------------------|---------------------------------|
D|---------------------------------|-----------------5-------7-------|
A|-------------8---8---------------|-5-----5-----8-------------------|
E|-6-----6-----------------8-------|---------------------------------|


[Pre-chorus]

   1 ^ + ^ 2 ^ + ^ 3 ^ + ^ 4 ^ + ^   1 ^ + ^ 2 ^ + ^ 3 ^ + ^ 4 ^ + ^
G|---------------------------------|---------------------------------|
D|---------------------------------|-----------------3-------3-------|
A|-1-----1-----1-------------------|-5-----5-----5-------------------|
E|-----------------3-------3-------|---------------------------------|

   1 ^ + ^ 2 ^ + ^ 3 ^ + ^ 4 ^ + ^   1 ^ + ^ 2 ^ + ^ 3 ^ + ^ 4 ^ + ^
G|---------------------------------|---------------------------------|
D|---------------------------------|-------------5--/7---------------|
A|-1-----1-----1-------------------|-5-----8-----------------8-------|
E|-----------------3-------3-------|---------------------------------|

   1 ^ + ^ 2 ^ + ^ 3 ^ + ^ 4 ^ + ^   1 ^ + ^ 2 ^ + ^ 3 ^ + ^ 4 ^ + ^
G|---------------------------------|---------------------------------|
D|---------------------------------|-----------------3-------5-3-----|
A|-1-----1-----1---3-------3-----3-|-5-----5-----5---------------5-3-|
E|-----------------------------3---|---------------------------------|

   1 ^ + ^ 2 ^ + ^ 3 ^ + ^ 4 ^ + ^   1 ^ + ^ 2 ^ + ^ 3 ^ + ^ 4 ^ + ^
G|---------------------------------|---------------------------------|
D|---------------------------------|----------------/7---------------|
A|-1-----1-----1-----------------3-|-5-----5-----5-------------------|
E|-----------------3-------3---6---|---------------------------------|


[Chorus]

   1 ^ + ^ 2 ^ + ^ 3 ^ + ^ 4 ^ + ^   1 ^ + ^ 2 ^ + ^ 3 ^ + ^ 4 ^ + ^
G|---------------------------------|---------------------5-----------|
D|---------------------------------|-------------5--/7---------7-----|
A|-1-----1-----1-------------------|-5-----8-------------------------|
E|-----------------3-------3-------|---------------------------------|

   1 ^ + ^ 2 ^ + ^ 3 ^ + ^ 4 ^ + ^   1 ^ + ^ 2 ^ + ^ 3 ^ + ^ 4 ^ + ^
G|---------------------------------|---------------------------------|
D|---------------------------------|-------------5--/7---------------|
A|-1-----1-----1---3-------3-------|-5-----8-----------------8-------|
E|---------------------------------|---------------------------------|


   1 ^ + ^ 2 ^ + ^ 3 ^ + ^ 4 ^ + ^   1 ^ + ^ 2 ^ + ^ 3 ^ + ^ 4 ^ + ^
G|---------------------------------|---------------------5-----------|
D|---------------------------------|-------------5--/7---------7-----|
A|-1-----1-----1-------------------|-5-----8-------------------------|
E|-----------------3-------3-------|---------------------------------|

   1 ^ + ^ 2 ^ + ^ 3 ^ + ^ 4 ^ + ^   1 ^ + ^ 2 ^ + ^ 3 ^ + ^ 4 ^ + ^
G|---------------------------------|---------------------------------|
D|---------------------------------|-------------5--/7---------------|
A|-1-----1---------3-------3-----3-|-5-----8-----------------8-------|
E|-------------3---------------6---|---------------------------------|


[Pre-verse]

   1 ^ + ^ 2 ^ + ^ 3 ^ + ^ 4 ^ + ^   1 ^ + ^ 2 ^ + ^ 3 ^ + ^ 4 ^ + ^
G|---------------------------------|---------------------------------|
D|---------------------------------|---------------------------------|
A|---------------------------------|---------------------------------|
E|---------------------------------|---------------------------------|

   1 ^ + ^ 2 ^ + ^ 3 ^ + ^ 4 ^ + ^   1 ^ + ^ 2 ^ + ^ 3 ^ + ^ 4 ^ + ^
G|-------------------------5---5---|-7-------------------------------|
D|---------------------5-7---7---7-|---------------------------------|
A|---------------------------------|---------------------------------|
E|---------------------------------|---------------------------------|


[Verse]

   1 ^ + ^ 2 ^ + ^ 3 ^ + ^ 4 ^ + ^   1 ^ + ^ 2 ^ + ^ 3 ^ + ^ 4 ^ + ^
G|---------------------------------|---------------------------------|
D|---------------------------------|---------------------------------|
A|-------------8---8---------------|-5-----5---------5-----5---------|
E|-6-----6-----------------8-------|---------------------------------|


   1 ^ + ^ 2 ^ + ^ 3 ^ + ^ 4 ^ + ^   1 ^ + ^ 2 ^ + ^ 3 ^ + ^ 4 ^ + ^
G|---------------------------------|---------------------5---5-5-----|
D|---------------------------------|-----------------5-7---7-----7\--|
A|-------------8---8---------------|-5-----5-------------------------|
E|-6-----6-----------------8-------|---------------------------------|


   1 ^ + ^ 2 ^ + ^ 3 ^ + ^ 4 ^ + ^   1 ^ + ^ 2 ^ + ^ 3 ^ + ^ 4 ^ + ^
G|---------------------------------|---------------------------------|
D|---------------------------------|---------------------------------|
A|-------------8---8---------------|-5-----5---------5-----5---------|
E|-6-----6-----------------8-------|---------------------------------|

   1 ^ + ^ 2 ^ + ^ 3 ^ + ^ 4 ^ + ^   1 ^ + ^ 2 ^ + ^ 3 ^ + ^ 4 ^ + ^
G|---------------------------------|---------------------------------|
D|---------------------------------|-----------------5-------7-------|
A|-------------8---8---------------|-5-----5-----8-------------------|
E|-6-----6-----------------8-------|---------------------------------|


[Pre-chorus]

   1 ^ + ^ 2 ^ + ^ 3 ^ + ^ 4 ^ + ^   1 ^ + ^ 2 ^ + ^ 3 ^ + ^ 4 ^ + ^
G|---------------------------------|---------------------------------|
D|---------------------------------|-----------------3-------3-------|
A|-1-----1-----1-------------------|-5-----5-----5-------------------|
E|-----------------3-------3-------|---------------------------------|

   1 ^ + ^ 2 ^ + ^ 3 ^ + ^ 4 ^ + ^   1 ^ + ^ 2 ^ + ^ 3 ^ + ^ 4 ^ + ^
G|---------------------------------|---------------------------------|
D|---------------------------------|-------------5--/7---------------|
A|-1-----1-----1-------------------|-5-----8-----------------8-------|
E|-----------------3-------3-------|---------------------------------|

   1 ^ + ^ 2 ^ + ^ 3 ^ + ^ 4 ^ + ^   1 ^ + ^ 2 ^ + ^ 3 ^ + ^ 4 ^ + ^
G|---------------------------------|---------------------------------|
D|---------------------------------|-----------------3-------5-3-----|
A|-1-----1-----1---3-------3-------|-5-----5-----5---------------5-3-|
E|---------------------------------|---------------------------------|

   1 ^ + ^ 2 ^ + ^ 3 ^ + ^ 4 ^ + ^   1 ^ + ^ 2 ^ + ^ 3 ^ + ^ 4 ^ + ^
G|---------------------------------|---------------------------------|
D|---------------------------------|-------------5--/7---------------|
A|-1-----1-----1-------------------|-5-----8-------------------------|
E|-----------------3-------3-------|---------------------------------|


[Chorus]

   1 ^ + ^ 2 ^ + ^ 3 ^ + ^ 4 ^ + ^   1 ^ + ^ 2 ^ + ^ 3 ^ + ^ 4 ^ + ^
G|---------------------------------|---------------------5-----------|
D|---------------------------------|-------------5--/7---------7-----|
A|-1-----1-----1-------------------|-5-----8-------------------------|
E|-----------------3-------3-------|---------------------------------|

   1 ^ + ^ 2 ^ + ^ 3 ^ + ^ 4 ^ + ^   1 ^ + ^ 2 ^ + ^ 3 ^ + ^ 4 ^ + ^
G|---------------------------------|---------------------------------|
D|---------------------------------|-------------5--/7---------------|
A|-1-----1-----1---3-------3-----3-|-5-----8-----------------8-------|
E|-----------------------------6---|---------------------------------|

   1 ^ + ^ 2 ^ + ^ 3 ^ + ^ 4 ^ + ^   1 ^ + ^ 2 ^ + ^ 3 ^ + ^ 4 ^ + ^
G|---------------------------------|---------------------5-----------|
D|---------------------------------|-------------5--/7---------7-----|
A|-1-----1-----1---------------3---|-5-----8-------------------------|
E|-----------------3-------3-----3-|---------------------------------|

   1 ^ + ^ 2 ^ + ^ 3 ^ + ^ 4 ^ + ^   1 ^ + ^ 2 ^ + ^ 3 ^ + ^ 4 ^ + ^
G|---------------------------------|---------------------------------|
D|---------------------------------|-------------5--/7---------------|
A|-1-----1-----1-1-3-------3-------|-5-----8-----------------8-------|
E|---------------------------------|---------------------------------|


[Bridge]

   1 ^ + ^ 2 ^ + ^ 3 ^ + ^ 4 ^ + ^   1 ^ + ^ 2 ^ + ^ 3 ^ + ^ 4 ^ + ^
G|---------------------------------|---------------------------------|
D|---------------------------------|---------------------------------|
A|---------------------------------|---------------------------------|
E|---------------------------------|---------------------------------|

   1 ^ + ^ 2 ^ + ^ 3 ^ + ^ 4 ^ + ^   1 ^ + ^ 2 ^ + ^ 3 ^ + ^ 4 ^ + ^
G|---------------------------------|-------------------------5-7-----|
D|---------------------------------|---------------------5-7-----5-7-|
A|---------------------------------|---------------------------------|
E|---------------------------------|---------------------------------|

   1 ^ + ^ 2 ^ + ^ 3 ^ + ^ 4 ^ + ^   1 ^ + ^ 2 ^ + ^ 3 ^ + ^ 4 ^ + ^
G|-5-------------------------------|---------------------7-5---------|
D|---------------------------------|-------------------------x-7-5-x-|
A|---------------------------------|---------------------------------|
E|---------------------------------|---------------------------------|

   1 ^ + ^ 2 ^ + ^ 3 ^ + ^ 4 ^ + ^   1 ^ + ^ 2 ^ + ^ 3 ^ + ^ 4 ^ + ^
G|---------------------------------|---------------------------------|
D|-3-------------------------------|---------------------------------|
A|---5-----------------------------|------------------------/17\-----|
E|---------------------------------|---------------------------------|

   1 ^ + ^ 2 ^ + ^ 3 ^ + ^ 4 ^ + ^   1 ^ + ^ 2 ^ + ^ 3 ^ + ^ 4 ^ + ^
G|---------------------------------|---------------------------------|
D|---------------------------------|---------------------------------|
A|-1-------------------------------|---------------------------------|
E|---------------------------------|-----------------3---------------|

   1 ^ + ^ 2 ^ + ^ 3 ^ + ^ 4 ^ + ^   1 ^ + ^ 2 ^ + ^ 3 ^ + ^ 4 ^ + ^
G|---------------------------------|---------------------------------|
D|---------------------------------|----------------/12----12----12--|
A|-5-------------------------------|---------------------12----12----|
E|---------------------------------|---------------------------------|

   1 ^ + ^ 2 ^ + ^ 3 ^ + ^ 4 ^ + ^   1 ^ + ^ 2 ^ + ^ 3 ^ + ^ 4 ^ + ^
G|---------------------------------|---------------------------------|
D|---------------------------------|---------------------------------|
A|-3-------------------------------|---------------------------------|
E|---------------------------------|-------------------1-3-----1-3---|

   1 ^ + ^ 2 ^ + ^ 3 ^ + ^ 4 ^ + ^   1 ^ + ^ 2 ^ + ^ 3 ^ + ^ 4 ^ + ^
G|---------------------------------|---------------------------------|
D|---------------------------------|---------------------------------|
A|-5-------------------------------|---------------------------------|
E|---------------------------------|---------------------------------|

   1 ^ + ^ 2 ^ + ^ 3 ^ + ^ 4 ^ + ^   1 ^ + ^ 2 ^ + ^ 3 ^ + ^ 4 ^ + ^
G|---------------------------------|---------------------------------|
D|---------------------------------|---------------------------------|
A|---------------------------------|-----------------------------17\-|
E|---------------------------------|---------------------------------|


[Solo]

   1 ^ + ^ 2 ^ + ^ 3 ^ + ^ 4 ^ + ^   1 ^ + ^ 2 ^ + ^ 3 ^ + ^ 4 ^ + ^
G|---------------------------------|---------------------------------|
D|---------------------------------|-----------------3-------3-------|
A|-1-----1-----1-------------------|-5-----5-----5-------------------|
E|-----------------3-------3-------|---------------------------------|

   1 ^ + ^ 2 ^ + ^ 3 ^ + ^ 4 ^ + ^   1 ^ + ^ 2 ^ + ^ 3 ^ + ^ 4 ^ + ^
G|---------------------------------|---------------------------------|
D|---------------------------------|-------------5--/7---------------|
A|-1-----1-----1-------------------|-5-----8-----------------8-------|
E|-----------------3-------3-------|---------------------------------|

   1 ^ + ^ 2 ^ + ^ 3 ^ + ^ 4 ^ + ^   1 ^ + ^ 2 ^ + ^ 3 ^ + ^ 4 ^ + ^
G|---------------------------------|---------------------------------|
D|---------------------------------|-----------------3-------5-3-----|
A|-1-----1-----1---3-------3-------|-5-----5-----5---------------5-3-|
E|---------------------------------|---------------------------------|

   1 ^ + ^ 2 ^ + ^ 3 ^ + ^ 4 ^ + ^   1 ^ + ^ 2 ^ + ^ 3 ^ + ^ 4 ^ + ^
G|---------------------------------|---------------------------------|
D|---------------------------------|-------------5--/7---------------|
A|-1-----1-----1-------------------|-5-----8-------------------------|
E|-----------------3-------3-------|---------------------------------|


[Pre-chorus]

   1 ^ + ^ 2 ^ + ^ 3 ^ + ^ 4 ^ + ^   1 ^ + ^ 2 ^ + ^ 3 ^ + ^ 4 ^ + ^
G|---------------------------------|---------------------------------|
D|---------------------------------|-----------------3-------3-------|
A|-1-----1-----1-------------------|-5-----5-----5-------------------|
E|-----------------3-------3-------|---------------------------------|

   1 ^ + ^ 2 ^ + ^ 3 ^ + ^ 4 ^ + ^   1 ^ + ^ 2 ^ + ^ 3 ^ + ^ 4 ^ + ^
G|---------------------------------|---------------------------------|
D|---------------------------------|-------------5--/7---------------|
A|-1-----1-----1-------------------|-5-----8-----------------8-------|
E|-----------------3-------3-------|---------------------------------|

   1 ^ + ^ 2 ^ + ^ 3 ^ + ^ 4 ^ + ^   1 ^ + ^ 2 ^ + ^ 3 ^ + ^ 4 ^ + ^
G|---------------------------------|---------------------------------|
D|---------------------------------|-----------------3-----0-5-3-----|
A|-1-----1-----1---3-------3-------|-5-----5-----5---------------5-3-|
E|---------------------------------|---------------------------------|

   1 ^ + ^ 2 ^ + ^ 3 ^ + ^ 4 ^ + ^   1 ^ + ^ 2 ^ + ^ 3 ^ + ^ 4 ^ + ^
G|---------------------------------|---------------------------------|
D|---------------------------------|-------------5--/7---------------|
A|-1-----1-----1-------------------|-5-----8-------------------------|
E|-----------------3-------3-------|---------------------------------|


[Chorus]

   1 ^ + ^ 2 ^ + ^ 3 ^ + ^ 4 ^ + ^   1 ^ + ^ 2 ^ + ^ 3 ^ + ^ 4 ^ + ^
G|---------------------------------|---------------------5-----------|
D|---------------------------------|-------------5--/7---------7-----|
A|-1-----1-----1-------------------|-5-----8-------------------------|
E|-----------------3-----3-----3---|---------------------------------|

   1 ^ + ^ 2 ^ + ^ 3 ^ + ^ 4 ^ + ^   1 ^ + ^ 2 ^ + ^ 3 ^ + ^ 4 ^ + ^
G|---------------------------------|---------------------------------|
D|---------------------------------|-------------5--/7---------------|
A|-1-----1-----1---3-----3-----3---|-5-----8-----------------8-------|
E|---------------------------------|---------------------------------|


   1 ^ + ^ 2 ^ + ^ 3 ^ + ^ 4 ^ + ^   1 ^ + ^ 2 ^ + ^ 3 ^ + ^ 4 ^ + ^
G|---------------------------------|---------------------5-----------|
D|---------------------------------|-------------5--/7---------7-----|
A|-1-----1-----1-------------------|-5-----8-------------------------|
E|-----------------3-----3-----3---|---------------------------------|

   1 ^ + ^ 2 ^ + ^ 3 ^ + ^ 4 ^ + ^   1 ^ + ^ 2 ^ + ^ 3 ^ + ^ 4 ^ + ^
G|---------------------------------|---------------------------------|
D|---------------------------------|-------------5--/7---------------|
A|-1-----1-----1---3-----3-----3---|-5-----8-----------------8-------|
E|---------------------------------|---------------------------------|


[Outro]

   1 ^ + ^ 2 ^ + ^ 3 ^ + ^ 4 ^ + ^   1 ^ + ^ 2 ^ + ^ 3 ^ + ^ 4 ^ + ^
G|---------------------------------|---------------------------------|
D|---------------------------------|---------------------------------|
A|---------------------------------|-5\------------------------------|
E|---------------------------------|---------------------------------|


************************************

| x   Dead note
| /   Slide up
| \   Slide down

************************************
Suggest correction
Creating personal tab
Creating personal tab
You can edit any tab online and save it as your Personal.

You can edit, replace or remove any tab part or add personal notes – all changes will be seen only by you.

Personal tabs can be accessed anytime from any device, even offline.
Learn more »
comments
print report bad tab
guest
You may want to rate the tab now too:
select rating
Wanna post a correction for this tab? Suggest correction