Oops, an error
Loading. Please wait.

Told You So tab

version 1
version 1

Whole song

  • This is a guitar tab showing the lead and rhythm parts.

Interactive

11,908 views 303 this week
no commentswrite comment
1 2 3 4 5
x 18
add to favorites
×
Save as Personal and add changes to this tab that will be seen only by you. Learn more ›
×
You can save this tab as Personal to edit and correct it or add notes. All changes will be seen only by you. Learn more »
launch autoscroll
font size
0
reset
how to read this tab
guitar tuner
edit
Autoscroll
slow
fast
+/-
esc
set tempo
stop
About this tab version
This is a guitar tab showing the lead and rhythm parts. Was this info helpful? Yes No
-------------------------------------------------------------------------------
Told You So - Paramore
-------------------------------------------------------------------------------
Tabbed by: WolfbainFox
Email: thomasgreene101@yahoo.com

Tuning: EADGBE (Standard)

Verse 1
        Guitar 1 [0:04]
e|--------------------------------------------------------------------------------|
B|----------6-6---6-6----------6-6---6-6----------6-6---6-6----------6-6---6--6---|
G|---7------7-7---7-7---7------7-7---7-7---7------7-7---7-7---7------7-7---7--7---|
D|---8------7-7---7-7---8------7-7---7-7---8------7-7---7-7---8------7-7---7--7---|
A|---8------5-5---5-5---8------5-5---5-5---8------5-5---5-5---8------5-5---5--5---|
E|---6------------------6------------------6------------------6-------------------|

        Guitar 2 [0:11]
e|--------------------------------------------------------------------------------|
B|----------------------------------------------------6-----6--88--------6-8--10--|
G|------------------------------------------55-77-----------------77--------------|
D|--------------------------------------------------------------------------------|
A|--------------------------------------------------------------------------------|
E|--------------------------------------------------------------------------------|
                *faint guitar comes in halfway through verse 1

Chorus 1
        Guitar 1 [0:19]
e|---------6-5----------8p6-5-----5--------------6-5----------8p6-5-----5-----|
B|---5h6-8--------------------8-6----------5p6-8--------------------8-6-------|
G|-------------5-7------------------7----------------5-7------------------7---| x2
D|----------------------------------------------------------------------------|
A|----------------------------------------------------------------------------|
E|----------------------------------------------------------------------------|

        Guitar 1 [0:35]
e|------------------------------------------------------------------------5---|
B|---6---5---6---5------6---5---6---5------6---5---6---5------6---5---6-------|
G|-----7---5---7---5------7---5---7---5------7---5---7---5------7---5---7-----|
D|----------------------------------------------------------------------------|
A|----------------------------------------------------------------------------|
E|----------------------------------------------------------------------------|
                *Not sure if it’s a guitar but still fun

Interlude
        Guitar 1 [0:50]
e|-------------------------------------5\-------------------------------------|
B|---6---6-6-----6---6---6h8p6---6-6---6\-------------------------------------|
G|-----7-----7-----7---7-------7-----7-7\-------------------------------------|
D|----------------------------------------------------------------------------|
A|----------------------------------------------------------------------------|
E|----------------------------------------------------------------------------|

        Guitar 2 [0:50]
e|----------------------------------------------------------------------------|
B|---3---3-3-----------------3---3-3---6\-------------------------------------|
G|-----3-----3---2---2---2-----3-----3-7\-------------------------------------|
D|-----------------3---3---------------7\-------------------------------------|
A|----------------------------------------------------------------------------|
E|----------------------------------------------------------------------------|

Verse 2
        Guitar 1 [0:58]
e|--------------------------------------------------------------------------------|
B|----------6-6---6-6----------6-6-----6----------6-6---6-6----------6-6---6--6---|
G|---7------7-7---7-7---7------7-7-----7---7------7-7---7-7---7------7-7---7--7---|
D|---8------7-7---7-7---8------7-7-----7---8------7-7---7-7---8------7-7---7--7---|
A|---8------5-5---5-5---8------5-5-----5---8------5-5---5-5---8------5-5---5--5---|
E|---6------------------6------------------6------------------6-------------------|
                *swell into Dm halfway through verse

        Guitar 2 [1:06]
e|--------------------------------------------------------------------------------|
B|----------------------------------------------------6-----6--88--------6-8--10--|
G|------------------------------------------55-77-----------------77--------------|
D|--------------------------------------------------------------------------------|
A|--------------------------------------------------------------------------------|
E|--------------------------------------------------------------------------------|
                *faint guitar comes in halfway through verse 2

Chorus 2
        Guitar 1 [1:13]
e|---------6-5----------8p6-5-----5--------------6-5----------8p6-5-----5-----|
B|---5h6-8--------------------8-6----------5p6-8--------------------8-6-------|
G|-------------5-7------------------7----------------5-7------------------7---| x2
D|----------------------------------------------------------------------------|
A|----------------------------------------------------------------------------|
E|----------------------------------------------------------------------------|

        Guitar 1 [1:29]
e|------------------------------------------------------------------------5---|
B|---6---5---6---5------6---5---6---5------6---5---6---5------6---5---6-------|
G|-----7---5---7---5------7---5---7---5------7---5---7---5------7---5---7-----|
D|----------------------------------------------------------------------------|
A|----------------------------------------------------------------------------|
E|----------------------------------------------------------------------------|
                *Not sure if it’s a guitar but still fun

Bridge
        Guitar 1 [1:44]
e|---15------17-----15-----17------15-----17-----15-----17--------------------|
B|---15------18-----15-----18------15-----18-----15-----18--------------------|
G|----------------------------------------------------------------------------|
D|----------------------------------------------------------------------------|
A|----------------------------------------------------------------------------|
E|----------------------------------------------------------------------------|
                *swell on the chords, lots of reverb and delay (just a C to a Dm)

Instrumental 1
        Guitar 1 [2:19]
e|-----------------------------------------------------------------------------------5----|
B|-6---5---6---5----------6---5---6---5----------6---5---6---5-------6---6---5---6--------|
G|---7---5---7---5-5-5h7----7---5---7---5--5h7-----7---5---7---5-x5h7-7----7---5---7------|
D|-------------------------------------------------------------------------------------7--|
A|----------------------------------------8---8-------------------------------------------|
E|----------------------------------------------------------------------------------------|
                *This is definitely a guitar here

Chorus 3
        Guitar 1 [2:35]
e|---------6-5----------8p6-5-----5--------------6-5----------8p6-5-----5-----|
B|---5h6-8--------------------8-6---3------5p6-8--------------------8-6---3---|
G|-------------5-7-----------------------------------5-7----------------------| x2
D|----------------------------------------------------------------------------|
A|----------------------------------------------------------------------------|
E|----------------------------------------------------------------------------|


Instrumental 2
        Guitar 1 [2:50]
e|-----------------------------------------------------------------------------------5-----------|
B|-6---5---6---5----------6---5---6---5----------6---5---6---5-------6---6---5---6---------------|
G|---7---5---7---5-5-5h7----7---5---7---5--5h7-----7---5---7---5-x5h7-7----7---5---7-------------|
D|-------------------------------------------------------------------------------------7-5h7-----|
A|----------------------------------------8---8----------------------------------------------8---|
E|-----------------------------------------------------------------------------------------------|
                *This is definitely a guitar here

Outro
        Guitar 1 [3:06]
e|---------------5\-----------------------------------------------------------|
B|---6---6-6-----6\-----------------------------------------------------------|
G|-----7-----7---7\-----------------------------------------------------------|
D|----------------------------------------------------------------------------|
A|----------------------------------------------------------------------------|
E|----------------------------------------------------------------------------|

        Guitar 2 [3:06]
e|---------------5\-----------------------------------------------------------|
B|---3---3-3-----6\-----------------------------------------------------------|
G|-----3-----3---7\-----------------------------------------------------------|
D|----------------------------------------------------------------------------|
A|----------------------------------------------------------------------------|
E|----------------------------------------------------------------------------|

                        Told You So Lyrics
            Lyrics from YouTube (https://www.youtube.com/watch?v=yw-RPm1uOM4)
LYRICS

(Verse 1)
For all I know
The best is over and the worst is yet to come
Is it enough?
To keep on hoping when the rest have given up?

(Chorus 1)
And they go
"I hate to say I told you so"
But they love to
Say they told me so
"I hate to say I told you so"
But they love to
Say they told me so

Say they say they told me
Say they say they told me
Say they say they told me

(Verse 2)
I know you like
When I admit that I was wrong and you were right
At least I try
To keep my cool when I am thrown into a fire

(Chorus 2)
And they go
"I hate to say I told you so"
But they love to
Say they told me so
"I hate to say I told you so"
But they love to
Say they told me so

Say they say they told me
Say they say they told me
Say they say they told me

(Bridge) x2
Throw me into the fire
Throw me in, pull me out again
Throw me into the fire
Throw me in, pull me out again
Throw me into the fire
Throw me in, pull me out again
Throw me into the fire
Throw me in, pull me out again

Throw me into the fire
Throw me in, pull me out again

(Chorus 3)
"I hate to say I told you so"
But they love to
Say they told me so
"I hate to say I told you so"
But they love to
Say they told me so


Say they say they told me
(Throw me into the fire
Throw me in, pull me out again)
Say they say they told me
(Throw me into the fire
Throw me in, pull me out again)
Say they say they told me
(Throw me into the fire
Throw me in, pull me out again)

If you have any suggestions please email me, thanks. 

            
            
Suggest correction
Creating personal tab
Creating personal tab
You can edit any tab online and save it as your Personal.

You can edit, replace or remove any tab part or add personal notes – all changes will be seen only by you.

Personal tabs can be accessed anytime from any device, even offline.
Learn more »
comments
print report bad tab
guest
You may want to rate the tab now too:
select rating
Wanna post a correction for this tab? Suggest correction