Oops, an error
Loading. Please wait.

Turn It Off Bass Tab

version 1
version 1

Whole song

Interactive

14,421 views 21 this week
1 commentread comment
1 2 3 4 5
excellent!
x 8
add to favorites
launch autoscroll
font size
0
reset
guitar tuner
Tab Pro tools
  • play this tab
  • loop segment
  • change instrument
  • show fretboard
  • metronome
×
Best way to learn
"Turn It Off"
Autoscroll
slow
fast
+/-
esc
set tempo
stop
Contributor
-------------------------------------------------------------------------------
			     turn it off - paramore
-------------------------------------------------------------------------------

Tabbed By: valerie l
e-mail: queefist@yahoo.com
Tuning: Drop D

Intro
G|---------------------------------------------|
D|---------------------------------------------|
A|0-00-0-2-3-33-3-3------0-00-0-2-3-33-3-3-----|
D|-----------------3-33--------------------0-00|x2

Verse "I scraped my knees while i was praying"
G|-------------------------------|
D|------------3p2-0~-------------|
A|0~---2-3~-----------0~---------|
D|------------------------3~---5~|x4

pre-chorus "turn it off in all my spite i'll turn it off.."
G|-------------------------------|
D|-----------3p2-0~--------------|
A|0~---2-3~----------0~----------|
D|----------------------33333-333|

chorus "and the worst part is"
G|----------------------------------|
D|---------5555555555---------------|
A|33333333-----------00000000-------|
D|---------------------------3335555|

intro x1

verse "tragedy it seems unending"
G|-------------------------------|
D|------------3p2-0~-------------|
A|0~---2-3~-----------0~---------|
D|------------------------3~---5~|x4

pre-chorus "towards a goal that's non existent"
G|-----------------------|
D|-----------3p2-0~------|
A|0~---2-3~----------0~--|
D|----------------------3|

chorus x2
intro x2

bridge "i wanna know what it feels like"
G|--------------------------------------------------------|
D|----------3p2-0~------3------------------3p2-0~-------3~|
A|0~--2-3~---------0~------------0~--2-3~----------0~-----|
D|-------------------------32235--------------------------|

"just turn it off...."
G|-----------------------------------|
D|-----------------------------------|
A|00000000-33333333------------------|
D|------------------33333333-55555555| x2

chorus x4

outro
G|--------------------------------------------------------|
D|7~---5/10~--10\3~--3--3--5~--5~-5--7~-7~-5---3-3-3-5-5-5|
A|-------------------------------------------3------------|
D|--------------------------------------------------------|

| /  slide up
| \  slide down
| h  hammer-on
| p  pull-off
| ~  vibrato
| +  harmonic
| x  Mute note
===============================================================================

comments
print report bad tab
1 comment total.
+1 reply
AlexD97 wrote on June 11 2010, 10:00 am

Very good.

I want to post or [tab]
guest
You may want to rate the tab now too:
select rating
Please do not post tabs as comments. Select "correction" instead!