Oops, an error
Loading. Please wait.

Turn It Off tab

version 2
version 2

Interactive

62,182 views 27 this week
4 commentsread comments
1 2 3 4 5
x 23
add to favorites
×
Save as Personal and add changes to this tab that will be seen only by you. Learn more ›
×
You can save this tab as Personal to edit and correct it or add notes. All changes will be seen only by you. Learn more »
launch autoscroll
font size
0
reset
how to read this tab
guitar tuner
edit
Autoscroll
slow
fast
+/-
esc
set tempo
stop
-------------------------------------------------------------------------------
                             Turn It Off - Paramore
-------------------------------------------------------------------------------
Tabbed by: PT-E
Email:

Tuning: Drop D
 
Intro
 Guitar 1
e|-------------------------------------|-------------------------------------|
B|-------------------------------------|-------------------------------------|
G|-17-16-17-16---12---7-7-9-10-9---2---|-17-16-17-16---12---7-7-9-10-9~------|
D|-x--x--x--x----x----x-x-x-x--x---x---|-x--x--x--x----x----x-x-x-x--x-------|
A|-15-14-15-14---10---5-5-7-8--7---0---|-15-14-15-14---10---5-5-7-8--7~------|
D|-------------------------------------|-------------------------------------|
 Guitar 2
e|-------------------------------------|-------------------------------------|
B|-------------------------------------|-------------------------------------|
G|-------------------------------------|-------------------------------------|
D|-7-7-7-7--9----10-10--10-10-10---3~--|--7-7-7-7--9----10-10--10-10-10-10---|
A|-7-7-7-7--10---10-10--10-10-10---3~--|--7-7-7-7--10---10-10--10-10-10-10---|
D|-7-7-7-7--9----10-10--10-10-10---3~--|--7-7-7-7--9----10-10--10-10-10-10---|

 Guitar 1  (it sounds like guitar 1 is using some kind of effect here.)
e|-------------------------------------|-------------------------------------|
B|-------------------------------------|-------------------------------------|
G|-17-16-17-16---12---7-7-9-10-9---2---|-17-16-17-16---12---7-7-9-10-9--7--5~|
D|-x--x--x--x----x----x-x-x-x--x---x---|-x--x--x--x----x----x-x-x-x--x--x--x~|
A|-15-14-15-14---10---5-5-7-8--7---0---|-15-14-15-14---10---5-5-7-8--7--5--3~|
D|-------------------------------------|-------------------------------------|
 
 Guitar 2
e|-------------------------------------|--------------------------------------|
B|-------------------------------------|--------------------------------------|
G|-------------------------------------|--------------------------------------|
D|-7-7-7-7--9----10-10--10-10-10---3~--|-7-7-7-7--9----10-10--10-10-10--3--7~-|
A|-7-7-7-7--10---10-10--10-10-10---3~--|-7-7-7-7--10---10-10--10-10-10--3--7~-|
D|-7-7-7-7--9----10-10--10-10-10---3~--|-7-7-7-7--9----10-10--10-10-10--3--7~-|


Verse
 Guitar 1
e|-------0--------------0--------------0--------------0----------------------|
B|-----1---1---1------1---1---1------1---1---1------1---1---1----------------|
G|---2-------2------2-------2------2-------2------2-------2------------------|
D|-------------------------------0--------------3----------------------------|
A|-0--------------3----------------------------------------------------------|
D|---------------------------------------------------------------------------|

 Guitar 1    2x
e|-----12------12------12------12------12------12------10------10----|--10----|
B|---13--13--13--13--13--13--13--13--13--13--13--13--13--13--13--13--|--13----|
G|-14------14------12------12------10------10------12------12--------|--12----|
D|-------------------------------------------------------------------|--------|
A|-------------------------------------------------------------------|--------|
D|-------------------------------------------------------------------|--------|
  Guitar 2
e|----------------------------------------------------------------------------|
B|-13~---------12~------------------------------------------------------------|
G|--------------------12~----------10~----------------------------------------|
D|----------------------------------------------10~-----3-3-3-3-3-3-3-3-3-----|
A|------------------------------------------------------3-3-3-3-3-3-3-3-3-----|
D|------------------------------------------------------3-3-3-3-3-3-3-3-3-----|
                                                        x x x x x x 

Chorus
 Guitar 1  2x
e|---------------------------------------------------------------------------|
B|---------------------------------------------------------------------------|
G|-7-5-5-7-5-5-5-7-4-4-4-4-4-4-4--4-4-4--5-5--12-12-12-12-12-12-12-12-12-----|
D|-5-5-5-5-5-5-5-5-5-5-5-5-5-5-5--x-x-x--x-x--x--x--x--x--x--x--x--x--x------|
A|--------------------------------2-2-2--3-3--10-10-10-10-10-10-10-10-10-----|
D|---------------------------------------------------------------------------|
 Guitar 2
e|---------------------------------------------------------------------------|
B|---------------------------------------------------------------------------|
G|-5-5-5-5-5-5-5-5-4-4-4-4-4-4-4-4-----------------x-x-----------------------|
D|-5-5-5-5-5-5-5-5-5-5-5-5-5-5-5-5-7-7-7-7-7-7-7-7-x-x--3-3-3-3--5-5-5-5-----|
A|-3-3-3-3-3-3-3-3-3-3-3-3-3-3-3-3-7-7-7-7-7-7-7-7-x-x--3-3-3-3--5-5-5-5-----|
D|---------------------------------7-7-7-7-7-7-7-7-x-x--3-3-3-3--5-5-5-5-----|


Intro

Verse

Chorus


Solo
 Guitar 1
e|-------------------------------------|-------------------------------------|
B|-------------------------------------|-------------------------------------|
G|-17-16-17-16---12---7-7-9-10-9---2---|-17-16-17-16---12---7-7-9-10-9~------|
D|-x--x--x--x----x----x-x-x-x--x---x---|-x--x--x--x----x----x-x-x-x--x-------|
A|-15-14-15-14---10---5-5-7-8--7---0---|-15-14-15-14---10---5-5-7-8--7~------|
D|-------------------------------------|-------------------------------------|
 Guitar 2
e|-------------------------------------|-------------------------------------|
B|-------------------------------------|-------------------------------------|
G|-------------------------------------|-------------------------------------|
D|-7-7-7-7--9----10-10--10-10-10---3~--|--7-7-7-7--9----10-10--10-10-10-10---|
A|-7-7-7-7--10---10-10--10-10-10---3~--|--7-7-7-7--10---10-10--10-10-10-10---|
D|-7-7-7-7--9----10-10--10-10-10---3~--|--7-7-7-7--9----10-10--10-10-10-10---|

 Guitar 1
e|----8---10--8------12----10--8-----------20--19------15--17--15------------|
B|-----------------------------------17------------17------------------------|
G|--9---9---------10----10--------14----14-------------------------14~-------|
D|---------------------------------------------------------------------------|
A|---------------------------------------------------------------------------|
D|---------------------------------------------------------------------------|
 Guitar 2
e|---------------------------------------------------------------------------|
B|---------------------------------------------------------------------------|
G|---------------------------------------------------------------------------|
D|-7-7-7-7-9--9--10-10-10-10-10-3-3-3-3---7-7-7-7-9--9--10-10-10-10-10-3-3-3-|
A|-7-7-7-7-10-10-10-10-10-10-10-3-3-3-3---7-7-7-7-10-10-10-10-10-10-10-3-3-3-|
D|-7-7-7-7-9--9--10-10-10-10-10-3-3-3-3---7-7-7-7-9--9--10-10-10-10-10-3-3-3-|



Bridge
e|-0------------0------------0-----------0-----------------------------------|
B|-1------------1------------1-----------1-----------------------------------|
G|-2------------0------------2-----------2-----------------------------------|
D|-2------------2------------0-----------3-------------5---------------------|
A|-0------------3------------3-----------3-----------------------------------|
D|---------------------------------------------------------------------------|

2x
 Guitar 1
e|---------------------------------------------------------------------------|
B|---------------------------------------------------------------------------|
G|-7-5-5-7-5-5-7-5-7-5-5-7-5-5-7-5-7-5-5-7-5-5-7-5-7-4-4-4-4-4-4-4-4-4-------|
D|-5-5-5-5-5-5-5-5-5-5-5-5-5-5-5-5-5-5-5-5-5-5-5-5-5-5-5-5-5-5-5-5-5-5-------|
A|---------------------------------------------------------------------------|
D|---------------------------------------------------------------------------|
 Guitar 2
e|---------------------------------------------------------------------------|
B|---------------------------------------------------------------------------|
G|---------------------------------------------------------------------------|
D|--7-7-7-7-7-7-7-10-10-10-10-10-10-10-3-3-3-3-3-3-3-3-5-5-5-5-5-5-5-5-------|
A|--7-7-7-7-7-7-7-10-10-10-10-10-10-10-3-3-3-3-3-3-3-3-5-5-5-5-5-5-5-5-------|
D|--7-7-7-7-7-7-7-10-10-10-10-10-10-10-3-3-3-3-3-3-3-3-5-5-5-5-5-5-5-5-------|


2x
Chorus
 Guitar 1  
e|---------------------------------------------------------------------------|
B|---------------------------------------------------------------------------|
G|-7-5-5-7-5-5-5-7-4-4-4-4-4-4-4--4-4-4--5-5--12-12-12-12-12-12-12-12-12-----|
D|-5-5-5-5-5-5-5-5-5-5-5-5-5-5-5--x-x-x--x-x--x--x--x--x--x--x--x--x--x------|
A|--------------------------------2-2-2--3-3--10-10-10-10-10-10-10-10-10-----|
D|---------------------------------------------------------------------------|
 Guitar 2
e|---------------------------------------------------------------------------|
B|---------------------------------------------------------------------------|
G|-5-5-5-5-5-5-5-5-4-4-4-4-4-4-4-4-----------------x-x-----------------------|
D|-5-5-5-5-5-5-5-5-5-5-5-5-5-5-5-5-7-7-7-7-7-7-7-7-x-x--3-3-3-3--5-5-5-5-----|
A|-3-3-3-3-3-3-3-3-3-3-3-3-3-3-3-3-7-7-7-7-7-7-7-7-x-x--3-3-3-3--5-5-5-5-----|
D|---------------------------------7-7-7-7-7-7-7-7-x-x--3-3-3-3--5-5-5-5-----|

2x
 Guitar 1
e|---------------------------------------------------------------------------|
B|---------------------------------------------------------------------------|
G|-9-7-7-12-7-7-7-7--9-7-7-12-7-7-7-7--4-4-5-5-7-7-7-7--2-2-4-4-5-5-5-5-5----|
D|-x-x-x-x--x-x-x-x--x-x-x-x--x-x-x-x--x-x-x-x-x-x-x-x--x-x-x-x-x-x-x-x-x----|
A|-7-5-5-10-5-5-5-5--7-5-5-10-5-5-5-5--2-2-3-3-5-5-5-5--0-0-2-2-3-3-3-3-3----|
D|---------------------------------------------------------------------------|

Guitar 2
e|---------------------------------------------------------------------------|
B|---------------------------------------------------------------------------|
G|-5-5-5-5-5-5-5-5-4-4-4-4-4-4-4-4-----------------x-x-----------------------|
D|-5-5-5-5-5-5-5-5-5-5-5-5-5-5-5-5-7-7-7-7-7-7-7-7-x-x--3-3-3-3--5-5-5-5-----|
A|-3-3-3-3-3-3-3-3-3-3-3-3-3-3-3-3-7-7-7-7-7-7-7-7-x-x--3-3-3-3--5-5-5-5-----|
D|---------------------------------7-7-7-7-7-7-7-7-x-x--3-3-3-3--5-5-5-5-----|

 
Outro
 Guitar 1
e|-------------------------------------------------------------------------------------|
B|-------------------------------------------------------------------------------------|
G|-10-9--9--10-9--9--9--9--10-9--9--10-9--9--9--9--10-9--9--10-9--9--9--9--7-7-7-7-7-7-|
D|-12-10-10-12-10-10-10-10-12-10-10-12-10-10-10-10-12-10-10-12-10-10-10-10-9-9-9-9-9-9-|
A|-------------------------------------------------------------------------------------|
D|-------------------------------------------------------------------------------------|

3x 
 Guitar 1
e|-------------------------------------------------------------------------------------|
B|-------------------------------------------------------------------------------------|
G|-10-9--9--10-9--9--9--9--10-9--9--10-9--9--9--9--10-9--9--10-9--9--9--9--7-7-7-7-7-7-|
D|-12-10-10-12-10-10-10-10-12-10-10-12-10-10-10-10-12-10-10-12-10-10-10-10-9-9-9-9-9-9-|
A|-------------------------------------------------------------------------------------|
D|-------------------------------------------------------------------------------------|
 Guitar 2
e|12-------12-------13----12-------12-15----13----12-------12-------13----10-------10-------10---|
B|---13-13----13-13----13----13-13-------13----13----13-13----13-13----13----12-12----12-12----10|
G|-----------------------------------------------------------------------------------------------|
D|-----------------------------------------------------------------------------------------------|
A|-----------------------------------------------------------------------------------------------|
D|-----------------------------------------------------------------------------------------------|

 Guitar 1
e|-------------------|
B|-------------------|
G|-9~----------------|
D|-10~---------------|
A|-------------------|
D|-------------------|
 Guitar 2
e|-12~---------------|
B|-13~---------------|
G|-------------------|
D|-------------------|
A|-------------------|
D|-------------------|


| /  slide up
| \  slide down
| h  hammer-on
| p  pull-off
| +  harmonic
| x  Mute note
===============================================================================

            
            
Suggest correction
Creating personal tab
Creating personal tab
You can edit any tab online and save it as your Personal.

You can edit, replace or remove any tab part or add personal notes – all changes will be seen only by you.

Personal tabs can be accessed anytime from any device, even offline.
Learn more »
comments
print report bad tab
4 comments total. Showing first comments.
0 reply
doobidoo 6,271 Oct 07, 2009 01:20 AM

i think they played the solo like this...

e|------8---10--8--------------------12------------------------------|
B|-------------------------------/10----10--13-12------10---10~------|
G|-/10---10--------10-9--7--5---------------------9-12----12---------|
D|-------------------------------------------------------------------|
A|-------------------------------------------------------------------|
D|-------------------------------------------------------------------|

0 reply
rocker_arm 10 Nov 11, 2009 06:27 PM

this one is good! ^^

0 reply
MrFlibble 482 Jul 03, 2010 05:43 PM

Kind of right, but it's played in Drop C#, not Drop D.

guest
You may want to rate the tab now too:
select rating
Wanna post a correction for this tab? Suggest correction