Oops, an error
Loading. Please wait.

We Are Broken tab

version 1
version 1

Whole song

Interactive

26,917 views 9 this week
3 commentsread comments
1 2 3 4 5
x 6
add to favorites
×
Save as Personal and add changes to this tab that will be seen only by you. Learn more ›
×
You can save this tab as Personal to edit and correct it or add notes. All changes will be seen only by you. Learn more »
launch autoscroll
font size
0
reset
how to read this tab
guitar tuner
edit
Autoscroll
slow
fast
+/-
esc
set tempo
stop
Difficulty
Paramore
RIOT!
9. We Are Broken

submitted by: milesk182
-Credit for this tab goes to paramore_fans@yahoo.com
(I re made his tab in a more user friendly version in stead of the complicated chord 
posted. Not 100% but sounds good enough. Also pPramore plays a half step down... ENJOY!

Verse 1

-------------|--------------------|
-------------|--------------------|
-4--4--3--3--|--8--8--3--3--4--4--|
-4--4--4--4--|--8--8--4--4--4--4--|
-2--2--1--1--|--6--6--4--4--2--2--|
-------------|--------2--2--------|

-------|--------------------|--------------------------|
-------|--------------------|--------------------------|
-3--3--|--8--8--3--3--4--4--|--3--3--8--8--3--3--4--4--|
-4--4--|--8--8--4--4--4--4--|--4--4--8--8--4--4--4--4--|
-1--1--|--6--6--4--4--2--2--|--1--1--6--6--4--4--2--2--|
-------|--------2--2--------|--------------2--2--------|

|--------------------|
|--------------------|
|--3--3--8--8--3--3--|
|--4--4--8--8--4--4--|
|--1--1--6--6--4--4--|
|--------------2--2--|


Refrain

----------------|
----------------|
-4--4--3--3--6--|
-4--4--4--4--6--|
-2--2--1--1--4--|
----------------|
	(x2)


Chorus

-------------------------|-------|
-------------------------|-------|
-8--8--8--8--3--3--3--3--|--6...-|
-8--8--8--8--4--4--4--4--|--6...-|
-6--6--6--6--4--4--4--4--|--4...-|
-------------2--2--2--2--|-------|

-------------------------|-------|
-------------------------|-------|
-8--8--8--8--3--3--3--3--|--6...-|
-8--8--8--8--4--4--4--4--|--6...-|
-6--6--6--6--4--4--4--4--|--4...-|
-------------2--2--2--2--|-------|

-------------------------|
-------------------------|
-4--4--4--4--------------|
-4--4--4--4--6--6--6--6--|
-2--2--2--2--6--6--6--6--|
-------------4--4--4--4--|

-------------------------|--------|
-------------------------|--------|
-4--4--4--4--------------|--3--3--|
-4--4--4--4--6--6--6--6--|--4--4--|
-2--2--2--2--6--6--6--6--|--4--4--|
-------------4--4--4--4--|--2--2--|

Verse 2

-------------|
-------------|
-4--4--3--3--|
-4--4--4--4--|
-2--2--1--1--|
-------------|

--------------------|--------|
--------------------|--------|
--8--8--3--3--4--4--|--3--3--|
--8--8--4--4--4--4--|--4--4--|
--6--6--4--4--2--2--|--1--1--|
--------2--2--------|--------|
		(x3)

|--------------|
|--------------|
|--8--8--3--3--|
|--8--8--4--4--|
|--6--6--4--4--|
|--------2--2--|

(Repeat Refrain & Chorus)

Interlude

Guitar 1: (x2)
    -------|-------|
      -4--4--|-----|
A  E  -4--4--|-6---|
      -2--2--|-6---|
      -------|-4---|


Guitar 2: (x2)
---7----4-----4-|
-5----5----7----|
----------------|
----------------|
----------------|
----------------|

Bridge

    -------|-------|
      -4--4--|-----|
A  E  -4--4--|-6---|
      -2--2--|-6---|
      -------|-4---|

    -------|-------|
      -4--4--|-----|
A  E  -4--4--|-6---|
      -2--2--|-6---|
      -------|-4---|

|-----
|-----
|--6-- (Hold)
|--6--
|--4--
|-----

(Repeat Refrain & Chorus)
Suggest correction
Creating personal tab
Creating personal tab
You can edit any tab online and save it as your Personal.

You can edit, replace or remove any tab part or add personal notes – all changes will be seen only by you.

Personal tabs can be accessed anytime from any device, even offline.
Learn more »
comments
print report bad tab
3 comments total.
+1 reply
LeninReturns 50 Jan 26, 2009 04:01 PM

This was supposed to be less confusing?

The A and E there in the bridge....does that mean play an A and E? or are you just putting down letters of the alphabet?

0 reply
metaldrummer88 40 Aug 10, 2009 05:11 PM

lmao. agreeing with LeninReturns

0 reply
Tomozaurus 230 Feb 03, 2010 11:55 AM

This is wrong...

guest
Wanna post a correction for this tab? Suggest correction