Oops, an error
Loading. Please wait.

When It Rains Tab

version 1
version 1
65,201 views 39 this week
2 commentsread comments
1 2 3 4 5
accurate
x 13
add to favorites
launch autoscroll
font size
0
reset
how to read this tab
guitar tuner
Autoscroll
slow
fast
+/-
esc
set tempo
stop
Help us to improve Ultimate-Guitar.com Take our survey!
×
Contributor
Tabbers playing skills
doobidoo 8,711
advanced +
PLS LIKE OUR BAND FAN PAGE @ FACEBOOK - https://www.facebook.com/SinceAstrid

Tabbed By Francis Twister
From Paramore Philippines(PARAWHORE)

TUNING - eb Bb Gb Db Ab Eb

Intro- 
1.Guitar1 - C#m 2x delay

2.Guitar1 - A C#m-E   A B-C#m  2X  E

Guitar2

|----------------14-----16---|-------------------------------|
|------17---17---------------|-------17---17-------12--------|
|-14/16--16---16-----16---16-|--14/16--16---16--14----14--13-|
|----------------------------|-------------------------------|2x
|----------------------------|-------------------------------|
|----------------------------|-------------------------------|


Verse-     
           C#m          
And when it rains,
                A          E       C#m       
On this side of town it touches, everything.

             A              E
Just say it again and mean it.
We don't miss a thing.

Refrain-  
|-00000000000000000000000000000000000000000000000000000000000000-|
|-77777777777777779999999999999999777777777777777799999999777777-|
|-99999999999999999999999999999999999999999999999999999999999999-|
|----------------------------------------------------------------|2x
|----------------------------------------------------------------|
|----------------------------------------------------------------|
F#m                                               E
You made yourself a bed at the bottom of the blackest hole (blackest hole)
 F#m                                                                E 
And convinced yourself that it's not the reason you don't see the sun anymore.


Chorus-
  A         C#m             E   
And oh, oh, how could you do it?
 A     B                C#m  
Oh I, I never saw it coming.
  A         C#m             E  
And oh, oh, I need the ending.
  A               B                C#m             E
So why can't you stay just long enough to explain?

Do Verse
And when it rains,
Will you always find an escape?
Just running away,

Do refrain
From all of the ones who love you, from everything.
You made yourself a bed at the bottom of the blackest hole (blackest hole)
And you'll sleep 'til May and you'll say that you don't wanna see the sun anymore.

Do Chorus-

And oh, oh, how could you do it?
Oh I, I never saw it coming.
And oh, oh, I need the ending.

So why can't you stay just long enough to explain?

Bridge-
|-----------------------------------------------------|
|-5----7~-----------5------7~---------5~--------------|
|-----------------------------------------------------|cont..
|-----------------------------------------------------|
|-----------------------------------------------------|
|-----------------------------------------------------|
 F#m  E    A
Take your time.
 F#m  E    A
Take my time.

   F#m                E              A      
Take these chances to turn it around. (take your time)
   F#m                E              A    
Take these chances, we'll make it somehow
   F#m                E              A 
And take these chances to turn it around. (take my...)
Just turn it around.

Bridge end-

|-9----|
|--9-10|
|------|
|------|
|------|
|------|

Do chorus 1x
Oh, how could you do it?
Oh I, I never saw it coming.

Do chorus 3x
Oh, oh, how could you do it?
Oh I, I never saw it coming.
Oh, oh, how could you do it?
Oh I, I never saw it coming.
Oh, oh I need an ending.
So why can't you stay just long enough to explain?

F#m              E
You can take your time,
A 
Take my time. 

GUITAR2 END

|-121212121212-16161616161616-|-0-0-0------|
|-----------------------------|-0-0-0------|
|-----------------------------|-2-2-2------|
|-----------------------------|-2-2-2------|
|-----------------------------|-0-0-0------|
|-----------------------------|------------|
comments
print report bad tab
2 comments total.
0 reply
fonzalina 13 wrote on March 8 2008, 01:56 pm

eh...it wasnt that great...srry

0 reply
the fendernator 967 wrote on April 21 2008, 11:44 am

the lead's a bit dodgy?

I want to post or [tab]
guest
You may want to rate the tab now too:
select rating
Please do not post tabs as comments. Select "correction" instead!