Oops, an error
Loading. Please wait.

Where The Lines Overlap Acoustic tab

version 8
version 8

Interactive

7,615 views 1 this week
1 commentread comment
1 2 3 4 5
x 5
add to favorites
×
Save as Personal and add changes to this tab that will be seen only by you. Learn more ›
×
You can save this tab as Personal to edit and correct it or add notes. All changes will be seen only by you. Learn more »
launch autoscroll
font size
0
reset
how to read this tab
guitar tuner
edit
Autoscroll
slow
fast
+/-
esc
set tempo
stop
Author
Difficulty
-------------------------------------------------------------------------------
                             WHERE THE LINES OVERLAP - Paramore
-------------------------------------------------------------------------------
Tabbed by: rockett97
Email: rockett97@hotmail.com

This is just Josh’s part, so you can just play it by yourself or whatever, 
sounds perfect!

ACOUSTIC

Tell me what you think, mail me, COMMENT, and oh, PLEASE RATE!!
Later guys.

(by the way; I did not tab any strumming patterns or amounts of times you have to 
play one chord in this tab, it’s kind of obvious when you start playing it. 
So that’s why I only put down the chords!)

Tuning: Standard

Intro

e|------------------|
B|------------------|
G|------------------|
D|-6--7-9----6--7-9-|
A|-7--0-0----7--0-0-|
E|-0--0-0----0--0-0-|

Verse

e|----------------------------------|
B|----------------------------------|
G|---------------------6--9----6--4-|
D|-6--7-9----6--7-9----x--x----x--x-| 
A|-7--0-0----7--0-0----4--7----4--2-|
E|-0--0-0----0--0-0-------0---------|

e|------------------------------------|
B|------------------------------------|
G|---------------------6--9----6--4-2-|
D|-6--7-9----6--7-9----x--x----x--x-2-| 
A|-7--0-0----7--0-0----4--7----4--2-0-|
E|-0--0-0----0--0-0-------0---------0-|



Chorus

Note: strum the first four chords 16 times (8 counts), 
and the rest of the chorus 8 times (4 counts). 
Listen to the song to hear what I mean, it’s easy

e|-0--0--0--0--4--0--0--2--4--5--0--x-|
B|-0--0--0--0--5--0--0--2--5--5--0--x-|
G|-1--2--1--2--6--2--1--4--6--4--1--x-|
D|-2--2--2--2--6--2--2--4--6--6--2--4-|
A|-2--0--2--0--4--0--2--2--4--6--2--4-|
E|-0--x--0--x--4--x--0--2--4--5--0--2-|

Verse

e|--------------------------------------|
B|--------------------------------------|
G|---------------------6--9----6--4-4-4-|
D|-6--7-9----6--7-9----x--x----x--x-x-x-| 
A|-7--0-0----7--0-0----4--7----4--2-2-2-|
E|-0--0-0----0--0-0-------0-------------|

e|----------------------------------|
B|----------------------------------|
G|---------------------6--9----6--4-|
D|-6--7-9----6--7-9----x--x----x--x-| 
A|-7--0-0----7--0-0----4--7----4--2-|
E|-0--0-0----0--0-0-------0---------|

e|-----------------------------------0-0-0-0-2-|
B|-----------------------------------0-0-0-0-2-|
G|-----------------------------------2-2-2-2-4-|
D|-6--7-9----6--7-9----11-x----11-9--2-2-2-2-4-| 
A|-7--0-0----7--0-0----x--7----x--x--0-0-0-0-2-|
E|-0--0-0----0--0-0----9--0----9--7--0-0-0-0-2-|

Chorus

Note: strum the first four chords 16 times (8 counts), 
and the rest of the chorus 8 times (4 counts). 
Listen to the song to hear what I mean, it’s easy

e|-0--0--0--0--4--0--0--2--4--5--0--x-|
B|-0--0--0--0--5--0--0--2--5--5--0--x-|
G|-1--2--1--2--6--2--1--4--6--4--1--x-|
D|-2--2--2--2--6--2--2--4--6--6--2--4-|
A|-2--0--2--0--4--0--2--2--4--6--2--4-|
E|-0--x--0--x--4--x--0--2--4--5--0--2-|

Bridge

Note: Palm-mute the first section (and listen to song for ‘amounts’)

e|(4)-(6)-(0)-(0)-(4)-(6)-(0)-(0)-0--0-|
B|(5)-(6)-(0)-(0)-(5)-(6)-(0)-(0)-0--0-|
G|-6---8--(1)--2---6---8--(1)--2--2--2-|
D|-6---8---2---2---6---8---2---2--2--2-|
A|-4---6---2---0---4---6---2---0--0--0-|
E|-x---x---0---x---x---x---0---x--x--x-|
   .   .   .   .   .   .   .

e|-4--7--0--0----4--7-7-7-7-7-7----0-0-|
B|-5--7--0--0----5--7-7-7-7-7-7----0-0-|
G|-6--9--1--2----6--9-9-9-9-9-9----1-1-|
D|-6--9--2--2----6--9-9-9-9-9-9----2-2-|
A|-4--7--2--0----4--7-7-7-7-7-7----2-2-|
E|-4--7--0--x----4--7-7-7-7-7-7----0-0-|

Chorus

Note: strum the first four chords 16 times (8 counts), 
and the rest of the chorus 8 times (4 counts). 
Listen to the song to hear what I mean, it’s easy

e|-0--0--0--4--0--0--2--4--5--0--x-|
B|-0--0--0--5--0--0--2--5--5--0--x-|
G|-2--1--2--6--2--1--4--6--4--1--x-|
D|-2--2--2--6--2--2--4--6--6--2--4-|
A|-0--2--0--4--0--2--2--4--6--2--4-|
E|-x--0--x--4--x--0--2--4--5--0--2-|

Outro

Basically just repeat the chords below.

e|-0--0--0--0--0--0--0--0--0--0--0--0--0--0--0--0----0-|
B|-0--0--0--0--0--0--0--0--0--0--0--0--0--0--0--0----0-|
G|-1--2--1--2--1--2--1--2--1--2--1--2--1--2--1--2----1-|
D|-2--2--2--2--2--2--2--2--2--2--2--2--2--2--2--2----2-|
A|-2--0--2--0--2--0--2--0--2--0--2--0--2--0--2--0----2-|
E|-0--x--0--x--0--x--0--x--0--x--0--x--0--x--0--x----0-|

That’s it!

RATE AND COMMENT PLEASE!

************************************

| X   Mute note
| .   Palm-mute note


************************************


            
            
Suggest correction
Creating personal tab
Creating personal tab
You can edit any tab online and save it as your Personal.

You can edit, replace or remove any tab part or add personal notes – all changes will be seen only by you.

Personal tabs can be accessed anytime from any device, even offline.
Learn more »
comments
print report bad tab
1 comment total.
0 reply
mcfly33192 10 Apr 01, 2010 05:57 AM

exactly the way it should be played. It was on the dvd thingy of BNE. THanks mate :)

guest
You may want to rate the tab now too:
select rating
Wanna post a correction for this tab? Suggest correction