Oops, an error
Loading. Please wait.

Helphelphelphelp Tab

84 views 1 this week
no commentswrite comment
1 2 3 4 5
2 more votes to show rating
add to favorites
launch autoscroll
font size
0
reset
how to read this tab
guitar tuner
Autoscroll
slow
fast
+/-
esc
set tempo
stop
Help us to improve Ultimate-Guitar.com Take our survey!
×
Author
Tuning
D A D G B E
-------------------------------------------------------------------------------
                 Help!Help!Help!Help! - Paranoia Dance Party!
-------------------------------------------------------------------------------
Tabbed by: Tyler
Email:Tyrosenberg10@msn.com
www.myspace.com/paranoiadanceparty

Tuning: Drop D


*I don't wanna hear anyone say this is wrong cause I wrote the damn thing lol. 
Enough people have asked me about tabbing out our songs I decided I'd go ahead 
and finally write em out. Enjoy!


Intro 

e|-------------------------------------------------------------------|
B|-------------------------------------------------------------------|
G|--5\4------5\4-------------------5\4------5\4------9-9-9-10-10*----|
D|--4\3------4\3---------4h7---4h7-4\3------4\3------8-8-8-9-----9*--|
A|--3\2------3\2------3h6---3h6----3\2------3\2------7-7-7-8---------|
D|------0000-----0000------------------0000-----0000-----------------|
        ^^^^     ^^^^                  ^^^^     ^^^^

Transition to Verse

e|--------------------------------|
B|-----------------------------7--|
G|--11-8---8--------------6-9-----|
D|------10--10-7-9----------------|
A|--------------------------------|
D|--------------------------------|

Verse

e|--9999xx9999xx9----------------------------9999xx9999xx9----------21-20--|
B|--9999xx9999xx8------8/14-14h15p14---------9999xx9999xx8------8/20-------|
G|----------------------------------15p14----------------------------------|
D|-------------------------------------------------------------------------|
A|-------------------------------------------------------------------------|
D|-------------------------------------------------------------------------|

Chorus
     
   x16       x8
e|----------------------------|
B|----------------------------|
G|--6--------13----1210x10x8--|
D|--6--------13----1210x10x8--|
A|--4--------11----1010x8-x6--|
D|----------------------------|

Chorus Varient. Played on the fourth time around

   x16       
e|--------------------------|
B|--------------------------|
G|--6-----------------------|
D|--6--------0000--0000-00--|
A|--4--------0000--0000-00--|
D|-----------0000--0000-00--|
             ^^^^  ^^^^ ^^

Transition to Gang Vocals

e|-------------8----------------|
B|-------------12---------------|
G|---------------------------5--|
D|--0000--0000----0000--0000-4--|
A|--0000--0000----0000--0000-3--|
D|--0000--0000----0000--0000----|
    ^^^^  ^^^^    ^^^^  ^^^^

Gang Vocals Part 

You cut the 2nd half out the 
last time around. Listen for 
the timing.

e|-----------------------------|
B|-----------------------------|
G|-----------------------------|
D|----0000----0000--0000-00----|
A|----0000----0000--0000-00----|
D|----0000----0000--0000-00----|
      ^^^^    ^^^^  ^^^^ ^^

Blast Beat Bridge
          
e|-----------------------------------------------------------------------------------------------|
B|----------------881111--------------88111------------------10101313------------------10101313--|
G|----------771010--------------771010-----------------991212--------------------991212----------|
D|------6699----------------6699-----------------881111--------------------881111----------------|
A|--5588----------------5588---------------771010--------------------771010----------------------|
D|-----------------------------------------------------------------------------------------------|

Sludge Breakdown. Sometimes I palm mute 
the open notes, sometimes I dont.

e|--------------------------------------------------|
B|--------------------------------------------------|
G|-------7-------------9-------------10---------12--|
D|--0----6--------0----8--------0----9-----0----11--|
A|--0----5--------0----7--------0----8-----0----10--|
D|--0-------------0-------------0----------0--------|
   
e|--------------------------------------------------|
B|--------------------------------------------------|
G|-------5-------------6-------------9----------10--|
D|--0----4--------0----7--------0----8-----0----9---|
A|--0----3--------0----5--------0----7-----0----8---|
D|--0-------------0-------------0----------0--------|

Sludge Breakdown Part Duex


e|---------------------------------------------------------------------------------------------|
B|---------------------------------------------------------------------------------------------|
G|---------7--------------------9--------------------10-------------------12-1212-12-12121212--|
D|--0-0000-6-0000-000-00-0-0000-8-0000-000-00-0-0000-9-0000-000-00-0-0000-1101111011011111111--|
A|--0-0000-5-0000-000-00-0-0000-7-0000-000-00-0-0000-8-0000-000-00-0-0000-1001010010010101010--|
D|--0-0000---0000-000-00-0-0000---0000-000-00-0-0000---0000-000-00-0-0000---0----0--0----------|
      ^^^^   ^^^^ ^^^ ^^   ^^^^   ^^^^ ^^^ ^^   ^^^^   ^^^^ ^^^ ^^   ^^^^
e|----------------------------------------------------------------------------------------|
B|----------------------------------------------------------------------------------------|
G|---------7--------------------9--------------------10-------------------12121212121212--|
D|--0-0000-6-0000-000-00-0-0000-8-0000-000-00-0-0000-9-0000-000-00-0-0000-11111111111111--|
A|--0-0000-5-0000-000-00-0-0000-7-0000-000-00-0-0000-8-0000-000-00-0-0000-10101010101010--|
D|--0-0000---0000-000-00-0-0000---0000-000-00-0-0000---0000-000-00-0-0000-----------------|
      ^^^^   ^^^^ ^^^ ^^   ^^^^   ^^^^ ^^^ ^^   ^^^^   ^^^^ ^^^ ^^   ^^^^

The order is as follows

Intro x 2
Transition to Verse
Verse X 4
Chorus x 4
Transition to Gang Vocals x 2
Gang Vocals Part X 4
Blast Beat Bridge x 2
Sludge Breakdown x 1
Sludge Breakdown Part Duex x 1
Verse X 4
Chorus X 4
Verse Varient X 4


The only things I didnt write down is the verse varient, because it is simply
the verse without the fills, with a flange effect. A second guitar plays the same 
rythem underneath it in breakdown form on the recording.

Also at the end of the last chorus (The varient I mentioned earlier)
I play the verse chords instead of the chugs


| /  slide up
| \  slide down
| h  hammer-on
| p  pull-off
| ^  palm mute
| ~  vibrato
| +  harmonic
| *  pinch harmonic
| x  Mute note
===============================================================================
Suggest correction
Give kudos to tab author, rate the tab!
1 2 3 4 5
comments
print report bad tab
guest
You may want to rate the tab now too:
select rating
Wanna post a correction for this tab? Suggest correction