Oops, an error
Loading. Please wait.

Shout It Out tab

386 views 1 this week
no commentswrite comment
1 2 3 4 5
3 more votes to show rating
add to favorites
×
Save as Personal and add changes to this tab that will be seen only by you. Learn more ›
×
You can save this tab as Personal to edit and correct it or add notes. All changes will be seen only by you. Learn more »
launch autoscroll
font size
0
reset
how to read this tab
guitar tuner
edit
Autoscroll
slow
fast
+/-
esc
set tempo
stop
Author
Great Belgian punkrock song
More info on their myspace: www.myspace.com/paranoiacs666


e---------------------------------------------------|
B---------------------------------------------------|
G----4-/-6--6--(0)----------------------------------|   (x3)
D----4-/-6--6--(0)--4---4-4-/-7---7-7--7-/-9--9-9---|
A----2-/-4--4--(0)--4---4-4-/-7---7-7--7-/-9--9-9---|
E-------------------2---2-2-/-5---5-5--5-/-7--7-7---|


e------------------------------------------|
B------------------------------------------|
G------------------------------------------|
D----2--2---2-2-2-/-6---6-6-6--6-6-6-6-----|
A----2--2---2-2-2-/-6---6-6-6--6-6-6-6-----|
E----0--0---0-0-0-/-4---4-4-4--4-4-4-4-----|

                                   I've got a


(palm muted)
e------------------------------------------------------------------------------------------|
B------------------------------------------------------------------------------------------|
G----6-6-6-6--6-6-6-6----2-2-2-2--2-2-2-2----------6-6-6-6--6-6-6-6------------------------|
D----6-6-6-6--6-6-6-6----2-2-2-2--2-2-2-2----------6-6-6-6--6-6-6-6----4-4-4-4--4-4-4-4----|
A----4-4-4-4--4-4-4-4----0-0-0-0--0-0-0-0----------4-4-4-4--4-4-4-4----4-4-4-4--4-4-4-4----|
E----------------------------------------------------------------------2-2-2-2--2-2-2-2----|

     feeling deep in-    side my bones  I've got a fever burning       bright          
the


(palm muted)
e--------------------------------------------------------------------------------|
B--------------------------------------------------------------------------------|
G----6-6-6-6--6-6-6-6----2-2-2-2--2-2-2-2----4-4---2-4--2-4----4-4-4--4-4-4-4----|
D----6-6-6-6--6-6-6-6----2-2-2-2--2-2-2-2----4-4---2-4--2-4----4-4-4--4-4-4-4----|
A----4-4-4-4--4-4-4-4----0-0-0-0--0-0-0-0----2-2---2-2--2-2----2-2-2--2-2-2-2----|
E--------------------------------------------------------------------------------|

     day fades i         want you by my     side

(repeat)
I hear church bells ring and angels sing
I'm bound by a strange desire
There's no pretend a feeling so divine

e-----------------------------------------------------------------|
B-----------------------------------------------------------------|
G-----------------------------------------------------------------|
D----4---------------------4--4-/-7--7-7-7-7-7-7--7-7-7--7-\-6----|
A----4---------------------4--4-/-7--7-7-7-7-7-7--7-7-7--7-\-6----|
E----2---------------------2--2-/-5--5-5-5-5-5-5--5-5-5--5-\-4----|

           Another lesson i have learned


e----------------------------------------------------------------------|
B----------------------------------------------------------------------|
G----------------------------------------------------------------------|
D----4---------------------4--4-/-7--7-7-7-7--7-/-9--9-9-9--9-9-9-9----|
A----4---------------------4--4-/-7--7-7-7-7--7-/-9--9-9-9--9-9-9-9----|
E----2---------------------2--2-/-5--5-5-5-5--5-/-7--7-7-7--7-7-7-7----|

            Love leaves no stone unturned


e---------------------------------------------------|
B---------------------------------------------------|
G----4-/-6--6--(0)----------------------------------|   (x3)
D----4-/-6--6--(0)--4---4-4-/-7---7-7--7-/-9--9-9---|
A----2-/-4--4--(0)--4---4-4-/-7---7-7--7-/-9--9-9---|
E-------------------2---2-2-/-5---5-5--5-/-7--7-7---|

      Gotta shout it out, we walk together
      Gotta shout it out, we walk forever


e------------------------------------------|
B------------------------------------------|
G------------------------------------------|
D----2--2---2-2-2-/-6---6-6-6--6-6-6-6-----|
A----2--2---2-2-2-/-6---6-6-6--6-6-6-6-----|
E----0--0---0-0-0-/-4---4-4-4--4-4-4-4-----|

       Gotta shout it out

I've got a shiver deep inside my bones
It feels so good it almost hurts
I'm overwhelmed I can not find the words

You're all wrapped up in mystery
when we're standing face to face
I wonder will we ever fall from grace

Another lesson i've learned
Love leaves no heart unturned

Gotta shout it out
We walk together
Gotta shout it out
We walk forever
I gotta shout it out

e------------------------|
B------------------------|
G----6----4----2----4----|   (x2)
D----6----4----2----4----|
A----4----2----0----2----|
E------------------------|


(palm muted first time)
e-----------------------------------------------------------------------------------------|
B-------------5-4-------------------4-2------------------2-0-------------------4-2--------|

  (x2)
D----6--6---6-------6------4--4---4-------4------2-2---2-------2------4--4---4-------4----|
A----4---------------------2---------------------0--------------------2-------------------|
E-----------------------------------------------------------------------------------------|

       hey!      hey!          ...


e--------------------------------------------------|
B--------------------------------------------------|
G--------------------------------------------------|
D-------------------------------7--7-/-9--9-9-9----|
A-------------------------------7--7-/-9--9-9-9----|
E-------------------------------5--5-/-7--7-7-7----|

    Gotta shout it out     We walk together


Gotta shout it out
We walk forever
I gotta shout it out

Tabbed by AdrianBE

            
            
Suggest correction
Creating personal tab
Creating personal tab
You can edit any tab online and save it as your Personal.

You can edit, replace or remove any tab part or add personal notes – all changes will be seen only by you.

Personal tabs can be accessed anytime from any device, even offline.
Learn more »
Give kudos to tab author, rate the tab!
1 2 3 4 5
comments
print report bad tab
guest
You may want to rate the tab now too:
select rating
Wanna post a correction for this tab? Suggest correction