Oops, an error
Loading. Please wait.

Ronnie Is A Psycho tab

22 views 1 this week
no commentswrite comment
1 2 3 4 5
3 more votes to show rating
add to favorites
×
Save as Personal and add changes to this tab that will be seen only by you. Learn more ›
×
You can save this tab as Personal to edit and correct it or add notes. All changes will be seen only by you. Learn more »
launch autoscroll
font size
0
reset
how to read this tab
guitar tuner
edit
Autoscroll
slow
fast
+/-
esc
set tempo
stop
Parasites - Ronnie Is A Psycho


[Intro]
    D#
e|----------------------------------------------------------------------|
B|----------------------------------------------------------------------|
G|--8-8-8-8-8-8-8-8--6/8-8-8-8-8-8-8--6/8-8-8-8-8-8-8--6/8-8-8-8-8-8-8--|
D|--8-8-8-8-8-8-8-8--6/8-8-8-8-8-8-8--6/8-8-8-8-8-8-8--6/8-8-8-8-8-8-8--|
A|--6-6-6-6-6-6-6-6--4/6-6-6-6-6-6-6--4/6-6-6-6-6-6-6--4/6-6-6-6-6-6-6--|
E|----------------------------------------------------------------------|

[Verse]
   G#                F                 C#                D#
e|----------------------------------------------------------------------|
B|----------------------------------------------------------------------|
G|------------------------------------6-6-6-6-6-6-6-6--8-8-8-8-8-8-8-8--| x4
D|--6-6-6-6-6-6-6-6--3-3-3-3-3-3-3-3--6-6-6-6-6-6-6-6--8-8-8-8-8-8-8-8--|
A|--6-6-6-6-6-6-6-6--3-3-3-3-3-3-3-3--4-4-4-4-4-4-4-4--6-6-6-6-6-6-6-6--|
E|--4-4-4-4-4-4-4-4--1-1-1-1-1-1-1-1------------------------------------|

[Pre-Chorus]
 Guitar 1
    C#               G#               D#               G#
e|----------------------------------------------------------------------|
B|----------------------------------------------------------------------|
G|--6-6-6-6-6-6-6-6-------------------8-8-8-8-8-8-8-8-------------------|
D|--6-6-6-6-6-6-6-6--6-6-6-6-6-6-6-6--8-8-8-8-8-8-8-8--6-6-6-6-6-6-6-6--|
A|--4-4-4-4-4-4-4-4--6-6-6-6-6-6-6-6--6-6-6-6-6-6-6-6--6-6-6-6-6-6-6-6--|
E|-------------------4-4-4-4-4-4-4-4-------------------4-4-4-4-4-4-4-4--|

    C#                               D#
e|--------------------------------------------------------------------|
B|--------------------------------------------------------------------|
G|--6-6-6-6-6-6-6-6-6-6-6-6-6-6-6-6--8-8-8-8-8-8-8-8-8-8-8-8-8-8-8-8--|
D|--6-6-6-6-6-6-6-6-6-6-6-6-6-6-6-6--8-8-8-8-8-8-8-8-8-8-8-8-8-8-8-8--|
A|--4-4-4-4-4-4-4-4-4-4-4-4-4-4-4-4--6-6-6-6-6-6-6-6-6-6-6-6-6-6-6-6--|
E|--------------------------------------------------------------------|

Guitar 2

e|--4---------------3-------4-------4-------------4-3~--|
B|----4---4-6-4---4---4---4---4---4---4---4-6-4---------|
G|------5-------5-------5-------5-------5-------5-------|
D|------------------------------------------------------|
A|------------------------------------------------------|
E|------------------------------------------------------|

[Chorus]
Guitar 1
    G#               C#               D#               C#
e|----------------------------------------------------------------------|
B|----------------------------------------------------------------------|
G|-------------------6-6-6-6-6-6-6-6--8-8-8-8-8-8-8-8--6-6-6-6-6-6-6-6--| X2
D|--6-6-6-6-6-6-6-6--6-6-6-6-6-6-6-6--8-8-8-8-8-8-8-8--6-6-6-6-6-6-6-6--|
A|--6-6-6-6-6-6-6-6--4-4-4-4-4-4-4-4--6-6-6-6-6-6-6-6--4-4-4-4-4-4-4-4--|
E|--4-4-4-4-4-4-4-4-----------------------------------------------------|

    G#               C#               D#
e|---------------------------------------------------------------------|
B|---------------------------------------------------------------------|
G|-------------------6-6-6-6-6-6-6-6--8-8-8-8-8-8-8-8-8-8-8-8-8-8-8-8--| X2
D|--6-6-6-6-6-6-6-6--6-6-6-6-6-6-6-6--8-8-8-8-8-8-8-8-8-8-8-8-8-8-8-8--|
A|--6-6-6-6-6-6-6-6--4-4-4-4-4-4-4-4--6-6-6-6-6-6-6-6-6-6-6-6-6-6-6-6--|
E|--4-4-4-4-4-4-4-4----------------------------------------------------|

Guitar 2

    G#               C#               D#               C#
e|----------------------------------------------------------------------|
B|----------------------------------------------------------------------|
G|-------------------6-6-6-6-6-6-6-6--8-8-8-8-8-8-8-8--6-6-6-6-6-6-6-6--| X2
D|--6-6-6-6-6-6-6-6--6-6-6-6-6-6-6-6--8-8-8-8-8-8-8-8--6-6-6-6-6-6-6-6--|
A|--6-6-6-6-6-6-6-6--4-4-4-4-4-4-4-4--6-6-6-6-6-6-6-6--4-4-4-4-4-4-4-4--|
E|--4-4-4-4-4-4-4-4-----------------------------------------------------|

e|--4-------------4-3~--4-------------4-3~--|
B|----4---4-6-4-----------4---4-6-4---------|
G|------5-------5-----------5-------5-------|
D|------------------------------------------|
A|------------------------------------------|
E|------------------------------------------|

[Verse]
   G#                F                 C#                D#
e|----------------------------------------------------------------------|
B|----------------------------------------------------------------------|
G|------------------------------------6-6-6-6-6-6-6-6--8-8-8-8-8-8-8-8--| x4
D|--6-6-6-6-6-6-6-6--3-3-3-3-3-3-3-3--6-6-6-6-6-6-6-6--8-8-8-8-8-8-8-8--|
A|--6-6-6-6-6-6-6-6--3-3-3-3-3-3-3-3--4-4-4-4-4-4-4-4--6-6-6-6-6-6-6-6--|
E|--4-4-4-4-4-4-4-4--1-1-1-1-1-1-1-1------------------------------------|

[Pre-Chorus]
 Guitar 1
    C#               G#               D#               G#
e|----------------------------------------------------------------------|
B|----------------------------------------------------------------------|
G|--6-6-6-6-6-6-6-6-------------------8-8-8-8-8-8-8-8-------------------|
D|--6-6-6-6-6-6-6-6--6-6-6-6-6-6-6-6--8-8-8-8-8-8-8-8--6-6-6-6-6-6-6-6--|
A|--4-4-4-4-4-4-4-4--6-6-6-6-6-6-6-6--6-6-6-6-6-6-6-6--6-6-6-6-6-6-6-6--|
E|-------------------4-4-4-4-4-4-4-4-------------------4-4-4-4-4-4-4-4--|

    C#                               D#
e|--------------------------------------------------------------------|
B|--------------------------------------------------------------------|
G|--6-6-6-6-6-6-6-6-6-6-6-6-6-6-6-6--8-8-8-8-8-8-8-8-8-8-8-8-8-8-8-8--|
D|--6-6-6-6-6-6-6-6-6-6-6-6-6-6-6-6--8-8-8-8-8-8-8-8-8-8-8-8-8-8-8-8--|
A|--4-4-4-4-4-4-4-4-4-4-4-4-4-4-4-4--6-6-6-6-6-6-6-6-6-6-6-6-6-6-6-6--|
E|--------------------------------------------------------------------|

Guitar 2

e|--4---------------3-------4-------4-------------4-3~--|
B|----4---4-6-4---4---4---4---4---4---4---4-6-4---------|
G|------5-------5-------5-------5-------5-------5-------|
D|------------------------------------------------------|
A|------------------------------------------------------|
E|------------------------------------------------------|

[Chorus]

Guitar 1
    G#               C#               D#               C#
e|----------------------------------------------------------------------|
B|----------------------------------------------------------------------|
G|-------------------6-6-6-6-6-6-6-6--8-8-8-8-8-8-8-8--6-6-6-6-6-6-6-6--| X2
D|--6-6-6-6-6-6-6-6--6-6-6-6-6-6-6-6--8-8-8-8-8-8-8-8--6-6-6-6-6-6-6-6--|
A|--6-6-6-6-6-6-6-6--4-4-4-4-4-4-4-4--6-6-6-6-6-6-6-6--4-4-4-4-4-4-4-4--|
E|--4-4-4-4-4-4-4-4-----------------------------------------------------|

    G#               C#               D#
e|---------------------------------------------------------------------|
B|---------------------------------------------------------------------|
G|-------------------6-6-6-6-6-6-6-6--8-8-8-8-8-8-8-8-8-8-8-8-8-8-8-8--| X2
D|--6-6-6-6-6-6-6-6--6-6-6-6-6-6-6-6--8-8-8-8-8-8-8-8-8-8-8-8-8-8-8-8--|
A|--6-6-6-6-6-6-6-6--4-4-4-4-4-4-4-4--6-6-6-6-6-6-6-6-6-6-6-6-6-6-6-6--|
E|--4-4-4-4-4-4-4-4----------------------------------------------------|

Guitar 2

    G#               C#               D#               C#
e|----------------------------------------------------------------------|
B|----------------------------------------------------------------------|
G|-------------------6-6-6-6-6-6-6-6--8-8-8-8-8-8-8-8--6-6-6-6-6-6-6-6--| X2
D|--6-6-6-6-6-6-6-6--6-6-6-6-6-6-6-6--8-8-8-8-8-8-8-8--6-6-6-6-6-6-6-6--|
A|--6-6-6-6-6-6-6-6--4-4-4-4-4-4-4-4--6-6-6-6-6-6-6-6--4-4-4-4-4-4-4-4--|
E|--4-4-4-4-4-4-4-4-----------------------------------------------------|

e|--4-------------4-3~--4-------------4-3~--|
B|----4---4-6-4-----------4---4-6-4---------|
G|------5-------5-----------5-------5-------|
D|------------------------------------------|
A|------------------------------------------|
E|------------------------------------------|

[Verse]
   G#                F                 C#                D#
e|----------------------------------------------------------------------|
B|----------------------------------------------------------------------|
G|------------------------------------6-6-6-6-6-6-6-6--8-8-8-8-8-8-8-8--| x4
D|--6-6-6-6-6-6-6-6--3-3-3-3-3-3-3-3--6-6-6-6-6-6-6-6--8-8-8-8-8-8-8-8--|
A|--6-6-6-6-6-6-6-6--3-3-3-3-3-3-3-3--4-4-4-4-4-4-4-4--6-6-6-6-6-6-6-6--|
E|--4-4-4-4-4-4-4-4--1-1-1-1-1-1-1-1------------------------------------|

[Pre-Chorus]
 Guitar 1
    C#               G#               D#               G#
e|----------------------------------------------------------------------|
B|----------------------------------------------------------------------|
G|--6-6-6-6-6-6-6-6-------------------8-8-8-8-8-8-8-8-------------------|
D|--6-6-6-6-6-6-6-6--6-6-6-6-6-6-6-6--8-8-8-8-8-8-8-8--6-6-6-6-6-6-6-6--|
A|--4-4-4-4-4-4-4-4--6-6-6-6-6-6-6-6--6-6-6-6-6-6-6-6--6-6-6-6-6-6-6-6--|
E|-------------------4-4-4-4-4-4-4-4-------------------4-4-4-4-4-4-4-4--|

    C#                               D#
e|--------------------------------------------------------------------|
B|--------------------------------------------------------------------|
G|--6-6-6-6-6-6-6-6-6-6-6-6-6-6-6-6--8-8-8-8-8-8-8-8-8-8-8-8-8-8-8-8--|
D|--6-6-6-6-6-6-6-6-6-6-6-6-6-6-6-6--8-8-8-8-8-8-8-8-8-8-8-8-8-8-8-8--|
A|--4-4-4-4-4-4-4-4-4-4-4-4-4-4-4-4--6-6-6-6-6-6-6-6-6-6-6-6-6-6-6-6--|
E|--------------------------------------------------------------------|

Guitar 2

e|--4---------------3-------4-------4-------------4-3~--|
B|----4---4-6-4---4---4---4---4---4---4---4-6-4---------|
G|------5-------5-------5-------5-------5-------5-------|
D|------------------------------------------------------|
A|------------------------------------------------------|
E|------------------------------------------------------|

[Chorus]
Guitar 1
    G#               C#               D#               C#
e|----------------------------------------------------------------------|
B|----------------------------------------------------------------------|
G|-------------------6-6-6-6-6-6-6-6--8-8-8-8-8-8-8-8--6-6-6-6-6-6-6-6--| X2
D|--6-6-6-6-6-6-6-6--6-6-6-6-6-6-6-6--8-8-8-8-8-8-8-8--6-6-6-6-6-6-6-6--|
A|--6-6-6-6-6-6-6-6--4-4-4-4-4-4-4-4--6-6-6-6-6-6-6-6--4-4-4-4-4-4-4-4--|
E|--4-4-4-4-4-4-4-4-----------------------------------------------------|

    G#               C#               D#
e|---------------------------------------------------------------------|
B|---------------------------------------------------------------------|
G|-------------------6-6-6-6-6-6-6-6--8-8-8-8-8-8-8-8-8-8-8-8-8-8-8-8--| X4
D|--6-6-6-6-6-6-6-6--6-6-6-6-6-6-6-6--8-8-8-8-8-8-8-8-8-8-8-8-8-8-8-8--|
A|--6-6-6-6-6-6-6-6--4-4-4-4-4-4-4-4--6-6-6-6-6-6-6-6-6-6-6-6-6-6-6-6--|
E|--4-4-4-4-4-4-4-4----------------------------------------------------|

    G#
e|-----|
B|-----|
G|-----|
D|--6--|
A|--6--|
E|--4--|

Guitar 2

    G#               C#               D#               C#
e|----------------------------------------------------------------------|
B|----------------------------------------------------------------------|
G|-------------------6-6-6-6-6-6-6-6--8-8-8-8-8-8-8-8--6-6-6-6-6-6-6-6--| X2
D|--6-6-6-6-6-6-6-6--6-6-6-6-6-6-6-6--8-8-8-8-8-8-8-8--6-6-6-6-6-6-6-6--|
A|--6-6-6-6-6-6-6-6--4-4-4-4-4-4-4-4--6-6-6-6-6-6-6-6--4-4-4-4-4-4-4-4--|
E|--4-4-4-4-4-4-4-4-----------------------------------------------------|

e|--4-------------4-3~--4-------------4-3~--|
B|----4---4-6-4-----------4---4-6-4---------|
G|------5-------5-----------5-------5-------| x2
D|------------------------------------------|
A|------------------------------------------|
E|------------------------------------------|

    G#
e|-----|
B|-----|
G|-----|
D|--6--|
A|--6--|
E|--4--|



************************************

| /  Slide up
| ~  Vibrato

************************************

            
            
Suggest correction
Creating personal tab
Creating personal tab
You can edit any tab online and save it as your Personal.

You can edit, replace or remove any tab part or add personal notes – all changes will be seen only by you.

Personal tabs can be accessed anytime from any device, even offline.
Learn more »
Give kudos to tab author, rate the tab!
1 2 3 4 5
comments
print report bad tab
guest
You may want to rate the tab now too:
select rating
Wanna post a correction for this tab? Suggest correction