Oops, an error
Loading. Please wait.

Our Ship Has Sailed bass

7 views 1 this week
no commentswrite comment
1 2 3 4 5
3 more votes to show rating
add to favorites
×
Save as Personal and add changes to this tab that will be seen only by you. Learn more ›
×
You can save this tab as Personal to edit and correct it or add notes. All changes will be seen only by you. Learn more »
launch autoscroll
font size
0
reset
guitar tuner
edit
Autoscroll
slow
fast
+/-
esc
set tempo
stop
Author
Difficulty
About this tab version
My intepretation of the bass guitar. Was this info helpful? Yes No
-----------------------------------------------------------------
OUR SHIP HAS SAILED - Parhelia
-----------------------------------------------------------------
Tabbed by: Liam 
Email: liam11111@hotmail.com
Album: Shifting Sands (https://parheliaband.bandcamp.com/album/shifting-sands)
Parhelia's Bandcamp: https://parheliaband.bandcamp.com/

Tuning: Standard (EADG)

SECTION 1

0.00 - 0.17

(Nothing to play)

0.17 - 0.26
G|----------------------------------------|---------------------------------------|
D|----------------------------------------|---------------------------------------|
A|---3-3-3-3-3-3-3------0-0-0-0-0-0-0-----|----------------------5-5-5-5-5-5-5----|
E|----------------------------------------|---0-0-0-0-0-0-0-----------------------|

0.26 - 0.35
G|----------------------------------------|---------------------------------------|
D|----------------------------------------|---------------------------------------|
A|---3-3-3-3-3-3-3------0-0-0-0-0-0-0-----|----------------------5-5-5-5-5-5-5----|
E|----------------------------------------|---0-0-0-0-0-0-0-----------------------|

0.35 - 0.44
G|----------------------------------------|---------------------------------------|
D|----------------------------------------|---------------------------------------|
A|---3-3-3-3-3-3-3------0-0-0-0-0-0-0-----|----------------------5-5-5-5-5-5-5----|
E|----------------------------------------|---0-0-0-0-0-0-0-----------------------|

0.44 - 0.52
G|----------------------------------------|---------------------------------------|
D|----------------------------------------|---------------------------------------|
A|---3-3-3-3-3-3-3------0-0-0-0-0-0-0-----|----------------------5-5-5-5-5-5-5----|
E|----------------------------------------|---0-0-0-0-0-0-0-----------------------|

0.52 - 1.01
G|----------------------------------------|---------------------------------------|
D|----------------------------------------|---------------------------------------|
A|---3-3-3-3-3-3-3------0-0-0-0-0-0-0-----|----------------------5-5-5-5-5-5-5----|
E|----------------------------------------|---0-0-0-0-0-0-0-----------------------|

1.01 - 1.10
G|----------------------------------------|---------------------------------------|
D|----------------------------------------|---------------------------------------|
A|---3-3-3-3-3-3-3------0-0-0-0-0-0-0-----|----------------------5-5-5-5-5-5-5----|
E|----------------------------------------|---0-0-0-0-0-0-0-----------------------|


SECTION 2


1.10 - 1.19
G|------------------9------9------9-------|----12------------7--------------------|
D|----------------9------9------9---------|--------------------7------------------|
A|-0--0--0-0-0-7-------7-----7------------|-10----10---5--5-------5---------------|
E|----------------------------------------|---------------------------------------|

1.19 - 1.27
G|------------------9------9------9-------|----12------------7--------------------|
D|----------------9------9------9---------|--------------------7------------------|
A|-0--0--0-0-0-7-------7-----7------------|-10----10---5--5-------5---------------|
E|----------------------------------------|---------------------------------------|

1.27 - 1.36
G|------------------9------9------9-------|----12------------7--------------------|
D|----------------9------9------9---------|--------------------7------------------|
A|-0--0--0-0-0-7-------7-----7------------|-10----10---5--5-------5---------------|
E|----------------------------------------|---------------------------------------|

1.36 - 1.45


G|------------------9------9------9-------|----12------------7--------------------|
D|----------------9------9------9---------|--------------------7------------------|
A|-0--0--0-0-0-7-------7-----7------------|-10----10---5--5-------5---------------|
E|----------------------------------------|---------------------------------------|

1.45 - 1.47
(Let note ring out)
G|--------|
D|--------|
A|-3------|
E|--------|


1.47 - 2.02

(Nothing to play)


BRIDGE 1


2.02 - 2.11
G|-------------------------------|---------------------------|
D|--------------------10-9-------|----9-9----9----9----------|
A|-----10-7-10-----10------------|-7-------7---7----7--------|
E|-8------------8----------------|---------------------------|

2.11 - 2.20
G|-------------------------------|---------------------------|
D|--------------------10-9-------|----9-9----9----9----------|
A|-----10-7-10-----10------------|-7-------7---7----7--------|
E|-8------------8----------------|---------------------------|

2.20 - 2.29
G|-------------------------------|---------------------------|
D|--------------------10-9-------|----9-9----9----9----------|
A|-----10-7-10-----10------------|-7-------7---7----7--------|
E|-8------------8----------------|---------------------------|

2.29 - 2.37
G|-------------------------------|---------------------------|
D|--------------------10-9-------|----9-9----9----9----------|
A|-----10-7-10-----10------------|-7-------7---7----7--------|
E|-8------------8----------------|---------------------------|


SECTION 3


2.37 - 2.46
G|-----------------------------|-----------------------------|
D|-----------------------------|-----------------------------|
A|-3--3-3-3--3--3--3-3--3--3---|-0--0-0-0--0--0--0-0--5--5--5|
E|-----------------------------|-----------------------------|

2.46 - 2.55
G|-----------------------------|-----------------------------|
D|-----------------------------|-----------------------------|
A|-3--3-3-3--3--3--3-3--3--3---|-0--0-0-0--0--0--0-0--5--5--5|
E|-----------------------------|-----------------------------|

2.55 - 3.03
G|-----------------------------|-----------------------------|
D|-----------------------------|-----------------------------|
A|-3--3-3-3--3--3--3-3--3--3---|-0--0-0-0--0--0--0-0--5--5--5|
E|-----------------------------|-----------------------------|

3.03 - 3.12
G|-----------------------------|-----------------------------|
D|-----------------------------|-----------------------------|
A|-3--3-3-3--3--3--3-3--3--3---|-0--0-0-0--0--0--0-0--5--5--5|
E|-----------------------------|-----------------------------|


3.12 - 3.21
G|-----------------------------|-----------------------------|
D|-----------------------------|-----------------------------|
A|-3--3-3-3--3--3--3-3--3--3---|-0--0-0-0--0--0--0-0--5--5--5|
E|-----------------------------|-----------------------------|

3.21 - 3.29
G|-----------------------------|-----------------------------|
D|-----------------------------|-----------------------------|
A|-3--3-3-3--3--3--3-3--3--3---|-0--0-0-0--0--0--0-0--5--5--5|
E|-----------------------------|-----------------------------|


SECTION 4


3.29 - 3.38
G|-----------------------------|-----------------------------|
D|-----------------------------|-7--7-7-7--7--7--7-7---------|
A|-7--7-7-7--7--7--7-7--7--7-7-|----------------------5--5--5|
E|-----------------------------|-----------------------------|

3.38 - 3.47
G|-----------------------------|-----------------------------|
D|-----------------------------|-7--7-7-7--7--7--7-7---------|
A|-7--7-7-7--7--7--7-7--7--7-7-|----------------------5--5--5|
E|-----------------------------|-----------------------------|

3.47 - 3.55
G|-----------------------------|-----------------------------|
D|-----------------------------|-7--7-7-7--7--7--7-7---------|
A|-7--7-7-7--7--7--7-7--7--7-7-|----------------------5--5--5|
E|-----------------------------|-----------------------------|

3.55 - 4.04
G|-----------------------------|-----------------------------|
D|-----------------------------|-7--7-7-7--7--7--7-7---------|
A|-7--7-7-7--7--7--7-7--7--7-7-|----------------------5--5--5|
E|-----------------------------|-----------------------------|


4.04 - 4.13
G|-----------------------------|-----------------------------|
D|-----------------------------|-----------------------------|
A|-3--3-3-3--3--3--3-3--3--3---|-0--0-0-0--0--0--0-0--0--0--0|
E|-----------------------------|-----------------------------|

4.13 - 4.21
G|-----------------------------|-----------------------------|
D|-----------------------------|-----------------------------|
A|-3--3-3-3--3--3--3-3--3--3---|-0--0-0-0--0--0--0-0--0--0--0|
E|-----------------------------|-----------------------------|


OUTRO


4.21 - 4.30
G|-------19-------19-------19-------19-------19----|-------14-------14-------14-------14-------14----|
D|----17-------17-------17-------17-------17----17-|----14-------14-------14-------14-------14----14-|
A|-15-------15-------15-------15-------15----------|-12-------12-------12-------12-------12----------|
E|-------------------------------------------------|-------------------------------------------------|

4.30 - 4.39
G|-------12-------12-------12-------12-------12----|-----9-----9-----9-----9-----9---|
D|----12-------12-------12-------12-------12----12-|---7-----7-----7-----7-----7---7-|
A|-10-------10-------10-------10-------10----------|-0-----0-----0-----0-----0-------|
E|-------------------------------------------------|---------------------------------|

4.39 - 4.48
G|-------19-------19-------19-------19-------19----|-------14-------14-------14-------14-------14----|
D|----17-------17-------17-------17-------17----17-|----14-------14-------14-------14-------14----14-|
A|-15-------15-------15-------15-------15----------|-12-------12-------12-------12-------12----------|
E|-------------------------------------------------|-------------------------------------------------|

4.48 - 4.56
G|-------12-------12-------12-------12-------12----|-----9-----9-----9-----9-----9---|
D|----12-------12-------12-------12-------12----12-|---7-----7-----7-----7-----7---7-|
A|-10-------10-------10-------10-------10----------|-0-----0-----0-----0-----0-------|
E|-------------------------------------------------|---------------------------------|

4.56 - 5.05
G|-------19-------19-------19-------19-------19----|-------14-------14-------14-------14-------14----|
D|----17-------17-------17-------17-------17----17-|----14-------14-------14-------14-------14----14-|
A|-15-------15-------15-------15-------15----------|-12-------12-------12-------12-------12----------|
E|-------------------------------------------------|-------------------------------------------------|

5.05 - 5.14
G|-------12-------12-------12-------12-------12----|-----9-----9-----9-----9-----9---|
D|----12-------12-------12-------12-------12----12-|---7-----7-----7-----7-----7---7-|
A|-10-------10-------10-------10-------10----------|-0-----0-----0-----0-----0-------|
E|-------------------------------------------------|---------------------------------|

5.14 - 5.23
G|-------19-------19-------19-------19-------19----|-------14-------14-------14-------14-------14----|
D|----17-------17-------17-------17-------17----17-|----14-------14-------14-------14-------14----14-|
A|-15-------15-------15-------15-------15----------|-12-------12-------12-------12-------12----------|
E|-------------------------------------------------|-------------------------------------------------|

5.23 - 5.32
G|-------12-------12-------12-------12-------12----|-----9-----9-----9-----9-----9---|
D|----12-------12-------12-------12-------12----12-|---7-----7-----7-----7-----7---7-|
A|-10-------10-------10-------10-------10----------|-0-----0-----0-----0-----0-------|
E|-------------------------------------------------|---------------------------------|

5.32 - end 
(let note ring)
G|-----------|
D|-----------|
A|-3---------|
E|-----------|
Suggest correction
Creating personal tab
Creating personal tab
You can edit any tab online and save it as your Personal.

You can edit, replace or remove any tab part or add personal notes – all changes will be seen only by you.

Personal tabs can be accessed anytime from any device, even offline.
Learn more »
Give kudos to tab author, rate the tab!
1 2 3 4 5
comments
print report bad tab
guest
You may want to rate the tab now too:
select rating
Wanna post a correction for this tab? Suggest correction