Oops, an error
Loading. Please wait.

Our Ship Has Sailed tab

version 2
version 2

Whole song

  • My intepretation of the rhythm/picked guitar (left channel's audio).
  • My interpretation of the lead/picked guitar (right channel's audio).
28 views 1 this week
no commentswrite comment
1 2 3 4 5
3 more votes to show rating
add to favorites
×
Save as Personal and add changes to this tab that will be seen only by you. Learn more ›
×
You can save this tab as Personal to edit and correct it or add notes. All changes will be seen only by you. Learn more »
launch autoscroll
font size
0
reset
how to read this tab
guitar tuner
edit
Autoscroll
slow
fast
+/-
esc
set tempo
stop
Author
Difficulty
About this tab version
My interpretation of the lead/picked guitar (right channel's audio). Was this info helpful? Yes No
OUR SHIP HAS SAILED - Parhelia
Tabbed by: Liam 
Email: liam11111@hotmail.com
Album: Shifting Sands (https://parheliaband.bandcamp.com/album/shifting-sands)
Parhelia's Bandcamp: https://parheliaband.bandcamp.com/
Tuning: Standard (EADGBe)

[INTRO]
(Clean tone, little to no delay, little to no reverb)
0.00 - 0.09 
e|------------------------------------------|-------------------------------3--------------|
B|---------0--------------------0-----------|---------0-----------------3-----3---3--------|
G|-----0-----0---0------------0---2---2-----|-------0---0---0---------4---4-----4----------|
D|-0h2---2-----2----------0h2-------2-------|---0h2-------2--------------------------------|
A|------------------------------------------|----------------------------------------------|
E|------------------------------------------|----------------------------------------------|

0.09 - 0.17 
e|------------------------------------------|-------------------------------3--------------|
B|---------0--------------------0-----------|---------0-----------------3-----3---3--------|
G|-----0-----0---0------------0---2---2-----|-------0---0---0---------4---4-----4----------|
D|-0h2---2-----2----------0h2-------2-------|---0h2-------2--------------------------------|
A|------------------------------------------|----------------------------------------------|
E|------------------------------------------|----------------------------------------------|

[SECTION 1]
(Clean tone, slight delay + reverb)
0.17 - 0.26
e|---------0-----2--------------------------|-------------------------------------------|
B|-----------0------------------3-1----0----|--------0----------------------------------|
G|-----0-------0--------------0-----0-(x)---|------0---0---0----------------------------|
D|-0h2---0----------------0h2---------------|--0h2-------2------------4---4----5--------|
A|------------------------------------------|-----------------------5---5----5----------|
E|------------------------------------------|-------------------------------------------|

0.26 - 0.35
e|---------0-----2--------------------------|-------------------------------------------|
B|-----------0------------------3-1----0----|--------0----------------------------------|
G|-----0-------0--------------0-----0-(x)---|------0---0---0----------------------------|
D|-0h2---0----------------0h2---------------|--0h2-------2------------4---4----5--------|
A|------------------------------------------|-----------------------5---5----5----------|
E|------------------------------------------|-------------------------------------------|

0.35 - 0.44
e|---------0-----2--------------------------|-------------------------------------------|
B|-----------0------------------3-1----0----|--------0----------------------------------|
G|-----0-------0--------------0-----0-(x)---|------0---0---0----------------------------|
D|-0h2---0----------------0h2---------------|--0h2-------2------------4---4----5--------|
A|------------------------------------------|-----------------------5---5----5----------|
E|------------------------------------------|-------------------------------------------|

0.44 - 0.52
e|---------0-----2--------------------------|-------------------------------------------|
B|-----------0------------------3-1----0----|--------0----------------------------------|
G|-----0-------0--------------0-----0-(x)---|------0---0---0----------------------------|
D|-0h2---0----------------0h2---------------|--0h2-------2------------4---4----5--------|
A|------------------------------------------|-----------------------5---5----5----------|
E|------------------------------------------|-------------------------------------------|

0.52 - 1.01
e|---------0-----2--------------------------|-------------------------------------------|
B|-----------0------------------3-1----0----|--------0----------------------------------|
G|-----0-------0--------------0-----0-(x)---|------0---0---0----------------------------|
D|-0h2---0----------------0h2---------------|--0h2-------2------------4---4----5--------|
A|------------------------------------------|-----------------------5---5----5----------|
E|------------------------------------------|-------------------------------------------|

1.01 - 1.11
e|---------0-----2--------------------------|-------------------------------------------|
B|-----------0------------------3-1----0----|--------0----------------------------------|
G|-----0-------0--------------0-----0-(x)---|------0---0---0----------------------------|
D|-0h2---0----------------0h2---------------|--0h2-------2------------4---4----5--------|
A|------------------------------------------|-----------------------5---5----5----------|
E|------------------------------------------|-------------------------------------------|

[SECTION 2]
1.10 - 1.18
e|------------12------------------------|-------------------------------------------|
B|------12-------12---------------------|-------------------------------------------|
G|12h14----14-------12---------12-------|------12-11h12-11--------11----------------|
D|---------------------14---14----14-14-|14-14-------------12--------12-------------|
A|--------------------------------------|---------------------14--------14----------|
E|--------------------------------------|-------------------------------------------|

1.18 -  1.27
e|------------12------------------------|------------------------------------------|
B|------12-------12---------------------|------------------------------------------|
G|12h14----14-------12---------12-------|-----12-11h12-11--------11----------------|
D|---------------------14---14----14-14-|14-14-------------12--------12------------|
A|--------------------------------------|--------------------14--------14----------|
E|--------------------------------------|------------------------------------------|

1.27 - 1.35
e|------------12--------------------------|----------------------------------------|
B|------12-------12--------------15-12--12|----------------------------------------|
G|12h14----14-------12------12--------12--|----12-11h12-11-----------11------------|
D|---------------------14-14--14----------|-14-------------12----12----12----------|
A|----------------------------------------|-------------------14---14----14--------|
E|----------------------------------------|----------------------------------------|

1.35 - 1.45
e|------------12--------------------------|----------------------------------------|
B|------12-------12--------------15-12--12|----------------------------------------|
G|12h14----14-------12------12--------12--|----12-11h12-11-----------11------------|
D|---------------------14-14--14----------|-14-------------12----12----12----------|
A|----------------------------------------|-------------------14---14----14--------|
E|----------------------------------------|----------------------------------------|

[SECTION 3]
(Clean tone, some delay + reverb)
1.45 - 1.54
e|-------------------------------|----------------------------------|
B|---7---7---7---7/8-8---8---8---|---8---8---8---8/10-10---10---10--|
G|-------------------------------|----------------------------------|
D|9----9---9---9-------9---9---9-|7----7---7---7---------7----7---7-|
A|-------------------------------|----------------------------------|
E|-------------------------------|----------------------------------|

1.54 - 2.02
e|-------------------------------|----------------------------------|
B|---7---7---7---7/8-8---8---8---|---8---8---8---8/10-10---10---10--|
G|-------------------------------|----------------------------------|
D|9----9---9---9-------9---9---9-|7----7---7---7---------7----7---7-|
A|-------------------------------|----------------------------------|
E|-------------------------------|----------------------------------|

2.02 - 2.11
e|-------------------------------|-------------------------------------------|
B|---7---7---7---7/8-8---8---8---|---8---8---8--8h10-10-12-12-10-12-12-10-8--|
G|-------------------------------|-------------------------------------------|
D|9----9---9---9-------9---9---9-|7----7---7---------------------------------|
A|-------------------------------|-------------------------------------------|
E|-------------------------------|-------------------------------------------|

2.11 - 2.19
e|-------------------------------|----------------------------10-12-12-10----|
B|---7---7---7---7/8-8---8---8---|---8---8---8--8h10-10-12-12-------------12-|
G|-------------------------------|-------------------------------------------|
D|9----9---9---9-------9---9---9-|7----7---7---------------------------------|
A|-------------------------------|-------------------------------------------|
E|-------------------------------|-------------------------------------------|

2.19 - 2.28
e|-------------------------------|-------------------------------------------|
B|---7---7---7---7/8-8---8---8---|---8---8---8--8h10-10-12-12-10-12-12-10-8--|
G|-------------------------------|-------------------------------------------|
D|9----9---9---9-------9---9---9-|7----7---7---------------------------------|
A|-------------------------------|-------------------------------------------|
E|-------------------------------|-------------------------------------------|

2.28 - 2.37
e|-------------------------------|----------------------------10-12-12-10----|
B|---7---7---7---7/8-8---8---8---|---8---8---8--8-10-10-12-12-------------12-|
G|-------------------------------|-------------------------------------------|
D|9----9---9---9-------9---9---9-|7----7---7---------------------------------|
A|-------------------------------|-------------------------------------------|
E|-------------------------------|-------------------------------------------|

[SECTION 4]
(Some distortion, delay + reverb)
2.37 - 2.46
e|---------------------------------|---------------------------------------|
B|---7---7---7---7/8-8---8h10-10---|-----8---8---8---8h10-10---------------|
G|---------------------------------|----------------------------9-9b10-----|
D|9----9---9---9-------9---------9-|-7-----7---7---7---------7-------------|
A|---------------------------------|---------------------------------------|
E|---------------------------------|---------------------------------------|

 2.46 - 2.55
e|---------------------------------|---------------------------------------|
B|---7---7---7---7/8-8---8h10-10--8|-----8---8---8---8h10-10---------------|
G|---------------------------------|----------------------------9-9b10-----|
D|9----9---9---9-------9---------9-|-7-----7---7---7---------7-------------|
A|---------------------------------|---------------------------------------|
E|---------------------------------|---------------------------------------|

2.55 - 3.02
e|---------------------------------|---------------------------------------|
B|---7---7---7---7/8-8---8h10-10--8|-----8---8---8---8h10-10---------------|
G|---------------------------------|----------------------------9-9b10-----|
D|9----9---9---9-------9---------9-|-7-----7---7---7---------7-------------|
A|---------------------------------|---------------------------------------|
E|---------------------------------|---------------------------------------|

3.02 - 3.11
e|---------------------------------|---------------------------------------|
B|---7---7---7---7/8-8---8h10-10--8|-----8---8---8---8h10-10---------------|
G|---------------------------------|----------------------------9-9b10-----|
D|9----9---9---9-------9---------9-|-7-----7---7---7---------7-------------|
A|---------------------------------|---------------------------------------|
E|---------------------------------|---------------------------------------|

[SECTION 5]
(Some distortion, delay + reverb)
3.11  - 3.20
e|------------------------------------------|----------------------------------------|
B|------------------------------------------|----------------------------------------|
G|------------------------------------------|----------------------------------------|
D|------------------------------------------|----------------------------------------|
A|-7---7---7-7-7--7--7--7---7--7--14-14-14--|-7---7---7-7-7--7--7--7--7--7--14-14-14-|
E|------------------------------------------|----------------------------------------|

3.20 - 3.29
e|------------------------------------------|-------------------------------------------|
B|------------------------------------------|-------------------------------------------|
G|------------------------------------------|-------------------------------------------|
D|------------------------------------------|-------------------------------------------|
A|-7---7---7-7-7--7--7--7---7--7--14-14-14--|-7---7---7-7-7--7--5--7--7--7--12-12-12-12-|
E|------------------------------------------|-------------------------------------------|

[SECTION 6]
(Some distortion, delay + reverb, downward strumming) 
3.29 - 3.39
e|-------------------------------------------------|----------------------------------------------|
B|-12-12-12-12-12-12-12-12-12-12-12-12-12-12-12-12-|-12-12-12-12-12-12-12-12-12-12-12-12----------|
G|-14-14-14-12-12-12-11-11-11-11-11-11-11-11-11-11-|-14-14-14-12-12-12-11-11-11-11-11-11--7-7-7-7-|
D|-------------------------------------------------|----------------------------------------------|
A|-------------------------------------------------|----------------------------------------------|
E|-------------------------------------------------|----------------------------------------------|

3.39 - 3.47
e|-------------------------------------------------|----------------------------------------------|
B|-12-12-12-12-12-12-12-12-12-12-12-12-12-12-12-12-|-12-12-12-12-12-12-12-12-12-12-12-12----------|
G|-14-14-14-12-12-12-11-11-11-11-11-11-11-11-11-11-|-14-14-14-12-12-12-11-11-11-11-11-11--7-7-7-7-|
D|-------------------------------------------------|----------------------------------------------|
A|-------------------------------------------------|----------------------------------------------|
E|-------------------------------------------------|----------------------------------------------|

3.47 - 3.55,4.04
e|------------------------------------------|-------------------------------------------------|
B|-12-12-12-12-12-12-12-12-12---------------|-12-12-12-12-12-12-12-12-12-12-12-12-12-12-12-12-|
G|-14-14-14-12-12-12-11-11-11-7-7-7-7-9-9-9-|-14-14-14-12-12-12-11-11-11-11-11-11-11-11-11-11-|
D|------------------------------------------|-------------------------------------------------|
A|------------------------------------------|-------------------------------------------------|
E|------------------------------------------|-------------------------------------------------|

3.55 - 4.04
e|------------------------------------------|-------------------------------------------------|
B|-12-12-12-12-12-12-12-12-12---------------|----------12-12-12-12-12-12-12-12-12-12-12-12-12-|
G|-14-14-14-12-12-12-11-11-11-7-7-7-7-9-9-9-|-14-14-14-12-12-12-11-11-11-11-11-11-11-11-11-11-|
D|------------------------------------------|-------------------------------------------------|
A|------------------------------------------|-------------------------------------------------|
E|------------------------------------------|-------------------------------------------------|

[SECTION 7]
(Some distortion, delay + reverb)
4.04 - 4.08
e|-------------------------------------------------------|
B|-------------------------------------------------------|
G|-------------------------------------------------------|
D|-------------------------------------------------------|
A|-7--7-7-7---7--7-7-7---7--7-7-7---7--7-7-7---7-7--7-7--|
E|-------------------------------------------------------|

4.08 - 4.13 
e|---------------------------------------------------------------------------|
B|---------------------------------------------------------------------------|
G|---------------------------------------------------------------------------|
D|---------------------------------------------------------------------------|
A|-14--14-14-14---14--14-14-14---14--14-14-14---14--14-14-14---14b15--14b15--|
E|---------------------------------------------------------------------------|

4.13 - 4.18
e|-------------------------------------------------------|
B|-------------------------------------------------------|
G|-------------------------------------------------------|
D|-------------------------------------------------------|
A|-7--7-7-7---7--7-7-7---7--7-7-7---7--7-7-7---7-7--7-7--|
E|-------------------------------------------------------|

4.18 - 4.22
e|---------------------------------------------------------------------------|
B|---------------------------------------------------------------------------|
G|---------------------------------------------------------------------------|
D|---------------------------------------------------------------------------|
A|-12--12-12-12---12--12-12-12---12--12-12-12---12--12-12-12---12-12--12-12--|
E|---------------------------------------------------------------------------|

[OUTRO]
(Clean tone, no delay, mild reverb)
4.22 - 4.30
e|----------------------------------------|----------------------------------------|
B|---------0-------------------0----------|------------0-----------------0---------|
G|-----0-----0---0-----------0---0---0----|--------0-----2---2---------0---2---2---|
D|-0h2---2-----2---------0h2-------2------|----0h2---2-----2-------0h2-------2-----|
A|----------------------------------------|----------------------------------------|
E|----------------------------------------|----------------------------------------|

4.30 - 4.39
e|----------------------------------------|-----------------------------3---------|
B|---------0-------------------3----------|-----------0-------------3-----3---3---|
G|-----0-----0---0---------4-----4---4----|-------0-----0---0-----4---4-----4-----|
D|-0h2---2-----2---------5---5-----5------|---0h2---2-----2-----------------------|
A|----------------------------------------|---------------------------------------|
E|----------------------------------------|---------------------------------------|

4.39 - 4.47
e|----------------------------------------|----------------------------------------|
B|---------0-------------------0----------|------------0-----------------0---------|
G|-----0-----0---0-----------0---0---0----|--------0-----2---2---------0---2---2---|
D|-0h2---2-----2---------0h2-------2------|----0h2---2-----2-------0h2-------2-----|
A|----------------------------------------|----------------------------------------|
E|----------------------------------------|----------------------------------------|

4.47 - 4.56
e|----------------------------------------|-----------------------------3---------|
B|---------0-------------------3----------|-----------0-------------3-----3---3---|
G|-----0-----0---0---------4-----4---4----|-------0-----0---0-----4---4-----4-----|
D|-0h2---2-----2---------5---5-----5------|---0h2---2-----2-----------------------|
A|----------------------------------------|---------------------------------------|
E|----------------------------------------|---------------------------------------|

4.56 - 5.05
e|----------------------------------------|----------------------------------------|
B|---------0-------------------0----------|------------0-----------------0---------|
G|-----0-----0---0-----------0---0---0----|--------0-----2---2---------0---2---2---|
D|-0h2---2-----2---------0h2-------2------|----0h2---2-----2-------0h2-------2-----|
A|----------------------------------------|----------------------------------------|
E|----------------------------------------|----------------------------------------|

5.06 - 5.13
e|----------------------------------------|-----------------------------3---------|
B|---------0-------------------3----------|-----------0-------------3-----3---3---|
G|-----0-----0---0---------4-----4---4----|-------0-----0---0-----4---4-----4-----|
D|-0h2---2-----2---------5---5-----5------|---0h2---2-----2-----------------------|
A|----------------------------------------|---------------------------------------|
E|----------------------------------------|---------------------------------------|

5.13 - 5.36
e|-------------------------------|----------------------------------------|
B|-------------------------------|---------------------------12-13-12-10--|
G|-7--7---7----7-----7-----7-----|-11--11----11------11-------------------|
D|-9----9----9----9-----9-----9--|-12-----12-----12-----12----------------|
A|-------------------------------|-0--------------------------------------|
E|-8-----------------------------|----------------------------------------|

5.36 - end
e|-------------------------------|----------------------------|
B|-8--8---8----8-----------------|----------------------------|
G|-9----9----9----9--------------|----------------------------|
D|-------------------9-10-9----9-|--5-------------------------|
A|-10-----------------------10---|--7--7--7--7--9-10-9-5-7----|
E|-------------------------------|----------------------------|

************************************

| h  Hammer-on
| /  Slide up
| b  Bend


************************************

            
            
Suggest correction
Creating personal tab
Creating personal tab
You can edit any tab online and save it as your Personal.

You can edit, replace or remove any tab part or add personal notes – all changes will be seen only by you.

Personal tabs can be accessed anytime from any device, even offline.
Learn more »
Give kudos to tab author, rate the tab!
1 2 3 4 5
comments
print report bad tab
guest
You may want to rate the tab now too:
select rating
Wanna post a correction for this tab? Suggest correction