Oops, an error
Loading. Please wait.

My Curse Live Cover tab

227 views 1 this week
1 commentread comment
1 2 3 4 5
2 more votes to show rating
add to favorites
×
Save as Personal and add changes to this tab that will be seen only by you. Learn more ›
×
You can save this tab as Personal to edit and correct it or add notes. All changes will be seen only by you. Learn more »
launch autoscroll
font size
0
reset
how to read this tab
guitar tuner
edit
Autoscroll
slow
fast
+/-
esc
set tempo
stop
-------------------------------------------------------------------------------
                             My Curse (Live Cover) - :::PaRitoNyK:::
-------------------------------------------------------------------------------
Tabbed by: The::Poison
Email: kfc5uxball5@aol.com

Tuning: Drop C#


Intro:(clean with medium delay) Part A
Guitar 1: let ring
|---------------------------------------------------------------|
|--------10----------10------------6----------6-----------------|
|-----10----8----10-----8------5-----5----5-----5---------------|
|---8---8------8----8--------8---8------8---8-------------------|
|---------------------------------------------------------------|
|---------------------------------------------------------------|

Guitar 2: strum
|---------------------------------------------------------------|
|-^-10~-------------------^-6~----------------------------------|
|-.-10~-------------------.-5~----------------------------------|
|-.-8~--------------------.-8~----------------------------------|
|-.-8~--------------------.-5~----------------------------------|
|-.-8~--------------------.-5~----------------------------------|
-----
Gtr 1:
|-------------------0-----------------------0-------------------|
|--------6------------6----------6------------6-----------------|
|-----5----5----5------------5-----5----5-----------------------|
|---7--7------7---7--------7---7------7---7---------------------|
|---------------------------------------------------------------|
|---------------------------------------------------------------|

Gtr 2:
|---------------------------------------------------------------|
|-^-6~-------------------^-6~-----------------------------------|
|-.-5~-------------------.-5~-----------------------------------|
|-.-7~-------------------.-7~-----------------------------------|
|-.-5~-------------------.-5~-----------------------------------|
|-.-0~-------------------.-0~-----------------------------------|
Repeat all part A once

Part B (both guitars distorted and muffled)
Gtr.1:
|---------------------------------------------------------------|
|--------10--------------10---------------6------------6--------|
|---10--------10----10--------10------5-------5----5-------5----|
|-8----8----8-----8----8----8-------8---8---8----8---8---8------|
|---------------------------------------------------------------|
|---------------------------------------------------------------|


Gtr. 2:
|---------------------------------------------------------------|
|----------------10~-------\----------------------6~---------\--|
|----------------10~-------\----------------------5~---------\--|
|----------------8~--------\----------------------8~---------\--|
|----------------8~--------\----------------------5~---------\--|
|-8-8-8-8-8-8----8~--------\-------5-5-5-5-5-5----5~---------\--|

-----
Gtr.1:
|--------------------0---------------------------0--------------|
|-------6----------------6----------6----------------6----------|
|---5-------5----5--------------5-------5----5------------------|
|-7---7---7----7---7---7------7---7---7----7---7---7------------|
|---------------------------------------------------------------|
|---------------------------------------------------------------|


Gtr.2:
|---------------------------------------------------------------|
|---------------------------------------------------------------|
|----------------7~--------\------------------7~----------\-----|
|----------------7~--------\------------------7~----------\-----|
|----------------5~--------\------------------5~----------\-----|
|-0-0-0-0-0-0-----------------0-0-0-0-0-0-----------------------|


Part C (distorted)
Gtr.1:
|---------------------------------------------------------------|
|---------------------------------------------------------------|
|---------------------------------------------------------------|
|-5-----3-------------------------------------------------------|
|-5-----3------------------------------5------------------------|
|---0-0---0-0-/6-0-0-5-0-0-3p0-0-0--/7---7-6-5-0-3-5------------|


(Gtr.2 comes in)
Gtr 1:
|---------------------------------------------------------------|
|---------------------------------------------------------------|
|---------------------------------------------------------------|
|-5-----3-------------------------------------------------------|
|-5-----3------------------------------3--------(P.H)-----------|
|---0-0---0-0-/6-0-0-5-0-0-3p0-0-0--/5---5-4-3-0-3*v------------|

Gtr 2:
|---------------------------------------------------------------|
|-3~---------------3~-------------------------------------------|
|-2~---------------2~-------------------------------------------|
|-0~---------------0~-------------------------------------------|
|-0~---------------0~------------------3--------(P.H)-----------|
|-0~---------------0~---------------/5---5-4-3-0-3*v------------|

Verse:(distorted)
Both Guitars:
|---------------------------------------------------------------|
|---------------------------------------------------------------|
|---------------------------------------------------------------|
|-5-----3-------------------------------------------------------|--|
|-5-----3------------------------------5------------------------|  |
|---0-0---0-0-/6-0-0-5-0-0-3p0-0-0--/7---7-6-5-0-3-5------------|  |
                                                                    X3 
|---------------------------------------------------------------|  |
|---------------------------------------------------------------|  |
|---------------------------------------------------------------|--|
|-5-----3-------------------------------------------------------|
|-5-----3------------------------------3--------(P.H)-----------|
|---0-0---0-0-/6-0-0-5-0-0-3p0-0-0--/5---5-4-3-0-3*v------------|

Pre-Chorus:
Both Guitars:
|---------------------------------------------------------------|
|---------------------------------------------------------------|
|---------------------------------------------------------------|
|---------------------------------------------------------------|
|---------------------------------------------------------------|
|-000-000-000-000---3p0-0-0--0-0---3p0-0-0--0-0-----------------|

|---------------------------------------------------------------|
|---------------------------------------------------------------|
|---------------------------------------------------------------|
|---------------------------------------------------------------|
|------------------------------5---------(P.H)------------------|
|-000-000-000-000---3p0-0-0-/7---7-6-5-0-3*v--------------------|

|---------------------------------------------------------------|
|---------------------------------------------------------------|
|---------------------------------------------------------------|
|---------------------------------------------------------------|
|---------------------------------------------------------------|
|-000-000-000-000---3p0-0-0--0-0---3p0-0-0--0-0-----------------|

|---------------------------------------------------------------|
|---------------------------------------------------------------|
|---------------------------------------------------------------|
|---------------------------------------------------------------|
|------------------------------5------------5-------------------|
|-000-000-000-000---3p0-0-0-/7---7-6-5-0-/7---7-6-5-0-----------|


Chorus:
Gtr.1:
|---------------------------------------------------------------|
|--------10--------------10---------------6------------6--------|
|---10--------10----10--------10------5-------5----5-------5----|
|-8----8----8-----8----8----8-------8---8---8----8---8---8------|
|---------------------------------------------------------------|
|---------------------------------------------------------------|


Gtr. 2:
|---------------------------------------------------------------|
|----------------10~-------\----------------------6~---------\--|
|----------------10~-------\----------------------5~---------\--|
|----------------8~--------\----------------------8~---------\--|
|----------------8~--------\----------------------5~---------\--|
|-8-8-8-8-8-8----8~--------\-------5-5-5-5-5-5----5~---------\--|

-----
Gtr.1:
|--------------------0---------------------------0--------------|
|-------6----------------6----------6----------------6----------|
|---5-------5----5--------------5-------5----5------------------|
|-7---7---7----7---7---7------7---7---7----7---7---7------------|
|---------------------------------------------------------------|
|---------------------------------------------------------------|


Gtr.2:
|---------------------------------------------------------------|
|---------------------------------------------------------------|
|----------------7~--------\------------------7~----------\-----|
|----------------7~--------\------------------7~----------\-----|
|----------------5~--------\------------------5~----------\-----|
|-0-0-0-0-0-0-----------------0-0-0-0-0-0-----------------------|

Repeat Chorus once

Verse 2: Repeat Verse x2

Pre-Chorus 2: Repeat Pre-Chorus

Chorus 2: repeat Chorus x2

Interlude:(light dist. and delay) 
Tried to time Gtr.1&2
Gtr.1
|---------------------------------------------------------------|
|---------------------------------------------------------------|
|-15--15--15----15--15--15--15-----12--12-12--------------------|
|-0---0---0-----0---0---0---0------0---0--0---------------------|
|-13--13--13----13--13--13--13-----10--10-10--------------------|
|---------------------------------------------------------------|

Gtr.2
|---------------------------------------------------------------|
|---------------------------------------------------------------|
|-3-------3~----3---3-------3~--3--5--7---7-7--7----------------|
|-x-------x~----x---x-------x~--x--x--x---x-x--x----------------|
|-1-------1~----1---1-------1~--1--3--5---5-5--5----------------|
|---------------------------------------------------------------|
-----
|---------------------------------------------------------------|
|---------------------------------------------------------------|
|-14-15~-------14---14---14--14----14---14---14--14----14-------|
|-0--0---------0----0----0---0-----0----0----0---0-----0--------|
|-12-13~-------12---12---12--12----12---12---12--12----12-------|
|---------------------------------------------------------------|

|---------------------------------------------------------------|
|---------------------------------------------------------------|
|-7------7-7---7----7--------7--7--7----7----7-----7---7--------|
|-x------x-x---x----x--------x--x--x----x----x-----x---x--------|
|-5------5-5---5----5--------5--5--5----5----5-----5---5--------|
|---------------------------------------------------------------|
----
|---------------------------------------------------------------|
|---------------------------------------------------------------|
|-10----10--10--10-9---9---9--9---9~----------------------------|
|-0-----0---0---0--0---0---0--0---0~----------------------------|
|-8-----8---8---8--7---7---7--7---7~----------------------------|
|---------------------------------------------------------------|

|---------------------------------------------------------------|
|---------------------------------------------------------------|
|-7---------7---7--7--------7-7--7~-----------------------------|
|-0---------0---0--0--------0-0--0~-----------------------------|
|-0---------0---0--0--------0-0--0~-----------------------------|
|---------------------------------------------------------------|
Repeat all Interlude

Chorus 3:
Both guitars
|---------------------------------------------------------------|
|---------------------------------------------------------------|
|-------------10------------------------10----------------------|
|----------------8\7-----------------------8\7------------------|
|--------------------8\5p0---------------------8\5p0------------|
|-88888888888---------------55555555555-------------------------|

|---------------------------------------------------------------|
|---------------------------------------------------------------|
|-------------10------------------------10-----10---------------|
|----------------8\7-----------------------8\7----8\7-----------|
|--------------------8\5p0--------------------------------------|
|-00000000000---------------00000000000-------------------------|

Repeat Chorus 3 once

Breakdown:
Both Guitars:
|---------------------------------------------------------------|
|--------------10~---------------------6~-----------------------|
|--------------10~---------------------5~-----------------------|
|-------8~-----8~---------------8~-----8~-----------------------|
|-8------------8~---------5------------5~-----------------------|
|-8------------8~---------5------------5~-----------------------|

|-------------------0~----------------------0~------------------|
|--------------6~----------------------6~-----------------------|
|--------------5~----------------------5~-----------------------|
|-------7~-----7~---------------7~-----7~-----------------------|
|-5------------5~---------5------------5~-----------------------|
|-0------------0~---------0------------0~-----------------------|
Repeat Breakdown

Outro:
Gtr 1:
|---------------------------------------------------------------|
|---------------------------------------------------------------|
|-10------------------10-----10---------------------------------|
|----8\7-------(x6)------8\7----8\7--(x4)-----------------------|
|--------8\5p0--------------------------------------------------|
|---------------------------------------------------------------|

Gtr.2
(Comes in after 2nd repeat of Gtr.1)
|---------------------------------------------------------------|
|---------------------------------------------------------------|
|-14---------------------14-------14----------------------------|
|----12\10--------(x6)------12\10----12\10--(x4)----------------|
|----------12\8p0-----------------------------------------------|
|---------------------------------------------------------------|
-----
Gtr.1
|---------------------------------------------------------------|
|---------------------------------------------------------------|
|-10------10----------------------------------------------------|
|----8\7-----8\7------------------------------------------------|
|---------------------------------------------------------------|
|---------------------------------------------------------------|

Gtr.2
|---------------------------------------------------------------|
|---------------------------------------------------------------|
|-14------14----------------------------------------------------|
|----12\10---12\10----------------------------------------------|
|---------------------------------------------------------------|
|---------------------------------------------------------------|
Repeat x3

            
            
Suggest correction
Creating personal tab
Creating personal tab
You can edit any tab online and save it as your Personal.

You can edit, replace or remove any tab part or add personal notes – all changes will be seen only by you.

Personal tabs can be accessed anytime from any device, even offline.
Learn more »
Give kudos to tab author, rate the tab!
1 2 3 4 5
comments
print report bad tab
1 comment total.
0 reply
Teddynezz 158 Jan 21, 2010 05:36 AM

its not muffled its muted lol! sorry but its true. anyways good tab. =P

guest
You may want to rate the tab now too:
select rating
Wanna post a correction for this tab? Suggest correction