Oops, an error
Loading. Please wait.

Without Words Tab

version 1
version 1

Whole song

Interactive

25,120 views 15 this week
2 commentsread comments
1 2 3 4 5
x 3
add to favorites
launch autoscroll
font size
0
reset
how to read this tab
guitar tuner
×
Best way to learn
"Without Words"
Autoscroll
slow
fast
+/-
esc
set tempo
stop
Author
Difficulty
novice
Song: Without Words
Artist: Piano Instrumental
Album: You're Beautiful OST
Tuning: Standard

[Intro]
[Keys]
e|-------11-13~--------11-13~-------8-9-------8-9--------------------------------9-11-------------|
B|-----9-------------9------------6---------6------------9-11--------9-11------9-----------9-11-13|
G|--10------------10------------------------------------------------------------------------------|
D|------------------------------8---------8---------8-11--------8-11--------11----------11--------|
A|------------------------------------------------------------------------------------------------|
E|------------------------------------------------------------------------------------------------|

[Guitar]
e|--------------------------------------------------------|
B|--------------------------------------------------------|
G|--------------------------------------------------------|
D|--------------------------------------------------------|
A|-9/11-11-1111-9-8-9~--9/11-11-1111-9-8-9~--9/11-11-1111-|
E|--------------------------------------------------------|

e|-------------------------------------------------------------------------------|
B|-------------------------------------------------------------------------------|
G|-------------------------------------------------------------------------------|
D|-9/11-10~-------------------9/11-10-8-8~-7h8-8~---8-10-11--10h11--1010--7h8-6--|
A|----------11---9/11-11-1111----------------------------------------------------|
E|-------------------------------------------------------------------------------|

(0:21)
[Keys]
e|-------------------------------------------------------------------|
B|------4---6---4-------4---6---4-------1---2---1-------1---2---1----|
G|-------------------------------------------------------------------|
D|----6---6---6---6---6---6---6---6---3---3---3---3---3---3---3---3--|
A|--4---------------4---------------1---------------1----------------|
E|-------------------------------------------------------------------|

e|-------------------------------------------------------------------|
B|---------------------------------------4---------------------------|
G|-----------------------------------5-------6---4h5b~--------6--~---|
D|-----6---8---6-------6---8---6---6---6---6---6---------------6-~---|
A|---4---4---4---4---4---4---4----------------------------------4~---|
E|-6---------------6-------------4-----------------------------------|

[Guitar]
e|--------------------------------------------------------|
B|--------------------------------------------------------|
G|--------------------------------------------------------|
D|--------------------------------------------------------|
A|-9/11-11-1111-9-8-9~--9/11-11-1111-9-8-9~--9/11-11-1111-|
E|--------------------------------------------------------|

e|-------------------------------------------------------------------------------------|
B|-------------------------------------------------------------------------------------|
G|-------------------------------------------------------------------------------------|
D|9/11-10~-------------------9/11-10-8-8~-7h8-8~---8-10-11--10h11--1010--7h8-11/13-13--|
A|---------11---9/11-11-1111-----------------------------------------------------------|
E|-------------------------------------------------------------------------------------|

[Chorus]
e|-------------------------------------------------------------------------------|
B|-------------------------------------------------------------------------------|
G|------------8----8h10-10-8-10h11-10---------------8----8h10--8h10-10-8-7h8p7~--|
D|---------11---11-------------------------------11---11-------------------------|
A|-9h11-11-------------------------------9h11-11---------------------------------|
E|-------------------------------------------------------------------------------|

e|---------------------------------------------------------------------|
B|----9--7-7-6h7-7~-----9--7-7-6h7-7~----------------------------------|
G|------------------------------------------------8h10-11-8------------|
D|--8-----------------8-----------------6h8-10-11-----------11/13-13~--|
A|---------------------------------------------------------------------|
E|---------------------------------------------------------------------|

e|-------------------------------------------------------------------------------|
B|-------------------------------------------------------------------------------|
G|------------8----8h10-10-8-10h11-10---------------8----8h10--8h10-10-8-7h8p7~--|
D|---------11---11-------------------------------11---11-------------------------|
A|-9h11-11-------------------------------9h11-11---------------------------------|
E|-------------------------------------------------------------------------------|

e|-------------------------------------------------------------------|
B|------9--7-7-6h7-7~---5h6s4-6h7-7~---------------------------------|
G|----------------------------------------------8h10-11-8------------|
D|--7h8-------------------------------6h8-10-11-----------11/13-13~--|
A|-------------------------------------------------------------------|
E|-------------------------------------------------------------------|

e|---------------------------|
B|---------------------------|
G|---------------------------|
D|--10h11-11-10--8---10--11--|
A|---------------------------|
E|---------------------------|

[Verse 2]
(1:28)
[Guitar]
e|--------------------------------------------------------|
B|--------------------------------------------------------|
G|--------------------------------------------------------|
D|--------------------------------------------------------|
A|-9/11-11-1111-9-8-9~--9/11-11-1111-9-8-9~--9/11-11-1111-|
E|--------------------------------------------------------|

e|-----------------------------------------------------------------------------------|
B|-----------------------------------------------------------------------------------|
G|-----------------------------------------------------------------------------------|
D|9/11-10~-------------------9/11-10-8-8~-7h8-8~---6h8--10--11-11--10-10-11/13-13~---|
A|---------11---9/11-11-1111---------------------------------------------------------|
E|-----------------------------------------------------------------------------------|

[Chorus 2]
e|-------------------------------------------------------------------------------|
B|-------------------------------------------------------------------------------|
G|------------8----8h10-10-8-10h11-10---------------8----8h10--8h10-10-8-7h8p7~--|
D|---------11---11-------------------------------11---11-------------------------|
A|-9h11-11-------------------------------9h11-11---------------------------------|
E|-------------------------------------------------------------------------------|

e|---------------------------------------------------------------------|
B|----9--7-7-6h7-7~-----9--7-7-6h7-7~----------------------------------|
G|------------------------------------------------8h10-11-8------------|
D|--8-----------------8-----------------6h8-10-11-----------11/13-13~--|
A|---------------------------------------------------------------------|
E|---------------------------------------------------------------------|

e|-------------------------------------------------------------------------------|
B|-------------------------------------------------------------------------------|
G|------------8----8h10-10-8-10h11-10---------------8----8h10--8h10-10-8-7h8p7~--|
D|---------11---11-------------------------------11---11-------------------------|
A|-9h11-11-------------------------------9h11-11---------------------------------|
E|-------------------------------------------------------------------------------|

e|-------------------------------------------------------------------|
B|------9--7-7-6h7-7~---5h6s4-6h7-7~---------------------------------|
G|----------------------------------------------8h10-11-8------------|
D|--7h8-------------------------------6h8-10-11-----------11/13-13~--|
A|-------------------------------------------------------------------|
E|-------------------------------------------------------------------|

(2:31)
e|--------------------------------------------------------------------------------------|
B|---------------------------------------------------------8----8h10--8h10-10-8-7h8p7~--|
G|-------------8----8h10~--8h10~-8--10h11-10~-----------11---11-------------------------|
D|----------11---11-----------------------------9h11-11---------------------------------|
A|--9h11-11-----------------------------------------------------------------------------|
E|--------------------------------------------------------------------------------------|

(2:46)it is then played a half note higher.. ^_^
e|--------------------------------------------------------------------------------------|
B|--------------------------------------------------------------------------------------|
G|-------------9----9h11~-9h11-9--11h12-11~---------------9----9h11~-9h11--11--9-8h9p8~-|
D|----------12---12------------------------------------12---12--------------------------|
A|-10h12-12-----------------------------------10h12-12----------------------------------|
E|--------------------------------------------------------------------------------------|

e|---------------------------------------------------------------------------|
B|-----10--8-8-7h8-8~------10--8-8-7h8-8~------------------------------------|
G|-----------------------------------------------------9h11--12-9------------|
D|-7h9-----------------7h9------------------7h9--11-12------------12/14-14~--|
A|---------------------------------------------------------------------------|
E|---------------------------------------------------------------------------|

e|--------------------------------------------------------------------------------------|
B|--------------------------------------------------------------------------------------|
G|-------------9----9h11~-9h11-9--11h12-11~---------------9----9h11~-9h11--11--9-8h9p8~-|
D|----------12---12------------------------------------12---12--------------------------|
A|-10h12-12-----------------------------------10h12-12----------------------------------|
E|--------------------------------------------------------------------------------------|

e|---------------------------------------------------------------------------|
B|-----10--8-8-7h8-8~---6h7s57h8-8~------------------------------------------|
G|------------------------------------------------9h11~-12-9-----------------|
D|-7h9---------------------------------7h9--11-12------------12-12/14-14~----|
A|---------------------------------------------------------------------------|
E|---------------------------------------------------------------------------|

e|----------------------------|
B|----------------------------|
G|----------------------------|
D|--11h12-12-11-9--11---12~---|
A|----------------------------|
E|----------------------------|

[Outro]
(3:36)
e|---------------------------------------------------------------|
B|---------------------------------------------------------------|
G|---------------------------------------------------------------|
D|---------------------------------------------------------------|
A|-10/12-12-1212-10-9-10~--10/12-12-1212-10-9-10~--10/12-12-1212-|
E|---------------------------------------------------------------|

e|---------------------------------------------------------------------------------|
B|---------------------------------------------------------------------------------|
G|---------------------------------------------------------------------------------|
D|-10/12-11~-------------------10/12-11-9-8h9~-9-9~---9-11-12--11h12--1111--8h9-7--|
A|----------12---10/12-12-1212-----------------------------------------------------|
E|---------------------------------------------------------------------------------|

************************************

| ~  Vibrato
| /  Slide up
| h  Hammer-on
| p  Pull-off

************************************
Suggest correction
Give kudos to tab author, rate the tab!
1 2 3 4 5
comments
print report bad tab
2 comments total.
0 reply
anjell4ever 10 Mar 25, 2011 08:18 PM

soooooo great!
now I could play this one..

0 reply
damnlucky07 10 Dec 20, 2012 10:10 PM

could you plz do it for "what should i do" too
atleast the intro plz

guest
You may want to rate the tab now too:
select rating
Wanna post a correction for this tab? Suggest correction