Oops, an error
Loading. Please wait.

A Cold Day In Hell Tab

version 1
version 1

Whole song

Interactive

66,452 views 18 this week
10 commentsread comments
1 2 3 4 5
x 16
add to favorites
launch autoscroll
font size
0
reset
how to read this tab
guitar tuner
×
Best way to learn
"A Cold Day In Hell"
Autoscroll
slow
fast
+/-
esc
set tempo
stop
Author
Difficulty
Tuning
  follow
intermediate
B F# B E G# C#
[Intro]
      Q=160
     4/4
(Gtr 1)
      E E E E Q  S S S S    S  S S S S S S S S S S S Q
C#|---------------------|------------------------------|
G#|o--------------------|------------------------------|
E |-------------------4h|==6p=4-----------4h6p4--------|
B |--4-7-6-7-4--0h6h7---|-------7p6p0h6h7-------7p6----|
F#|o--------------------|---------------------------7--|
B |---------------------|------------------------------|

(Gtr 2)
  |   W                    +H              H
C#|---------------------|------------------------------|
G#|o--------------------|------------------------------|
E |---------------------|------------------------------|
B |---------------------|------------------------------|
F#|o-0------------------|-(0)-------------2------------|
B |--0------------------|-(0)-------------2------------|

    E E E E Q  S S S S    S  S S S S S S S Q  Q
C#|--------------------|------------------------|
G#|--------------------|-----------------0-5----|
E |------------------4h|==6p=4----------------7-|
B |-4-7-6-7-4--0h6h7---|-------7p6p0h6h7--------|
F#|--------------------|------------------------|
B |--------------------|------------------------|

  | W                    +W
C#|--------------------|------------------------|
G#|--------------------|------------------------|
E |--------------------|------------------------|
B |--------------------|------------------------|
F#|-4------------------|-(4)--------------------|
B |-4------------------|-(4)--------------------|

    E E E E Q  S S S S    S  S S S S S S S S S S S Q
C#|--------------------|------------------------------|
G#|--------------------|------------------------------|
E |------------------4h|==6p=4-----------4h6p4--------|
B |-4-7-6-7-4--0h6h7---|-------7p6p0h6h7-------7p6----|
F#|--------------------|---------------------------7--|
B |--------------------|------------------------------|

  | W                    +H              H
C#|--------------------|------------------------------|
G#|--------------------|------------------------------|
E |--------------------|------------------------------|
B |--------------------|------------------------------|
F#|-7------------------|-(7)-------------7------------|
B |-7------------------|-(7)-------------7------------|

    E E E E Q  S S S S    S  S S S S S S S Q  Q    (3x)
C#|--------------------|---------------------------|
G#|--------------------|-----------------0-5------o|
E |------------------4h|==6p=4----------------7----|
B |-4-7-6-7-4--0h6h7---|-------7p6p0h6h7-----------|
F#|--------------------|--------------------------o|
B |--------------------|---------------------------|

  | W                    +H                Q  Q    (3x)
C#|--------------------|---------------------------|
G#|--------------------|--------------------------o|
E |--------------------|---------------------------|
B |--------------------|-------------------6--4----|
F#|-2------------------|-(2)----------------------o|
B |-2------------------|-(2)-----------------------|

    Q=205
(Gtr 1)
    W          +W           +W           +W
C#|----------|------------|------------|--------|
G#|----------|------------|------------|--------|
E |----------|------------|------------|--------|
B |----------|------------|------------|--------|
F#|-0--------|-(0)--------|-(0)--------|-(0)----|
B |-0--------|-(0)--------|-(0)--------|-(0)----|

[Verse 1] 
      PM--|
    E S S S S E E E E E   S S S S S S S S  S  S  S  S S S S S
C#|---------------------|-------------------------------------|
G#|---------------------|-------------------------------------|
E |---------------------|-------------------------------------|
B |---------------------|-7-7-7-7---------10-10-10-10---------|
F#|---------------------|---------8-8-8-8-------------7-7-7-7-|
B |-0-0-0-0---0---0---0-|-------------------------------------|

  |         W                              W
C#|---------------------|-------------------------------------|
G#|---------------------|-------------------------------------|
E |---------------------|-------------------------------------|
B |---------------------|-------------------------------------|
F#|---------------------|-------------------------------------|
B |---------------------|-------------------------------------|

      PM--|
    E S S S S E E E E E   E E E E E E E E
C#|---------------------|-----------------|
G#|---------------------|-----------------|
E |---------------------|-----------------|
B |---------------------|---------5-7-----|
F#|---------------------|-0-5-7-8-----8-7-|
B |-0-0-0-0---0---0---0-|-----------------|

  |           W                   W

C#|---------------------|-----------------|
G#|---------------------|-----------------|
E |---------------------|-----------------|
B |---------------------|-----------------|
F#|---------------------|-----------------|
B |---------------------|-----------------|

      PM--|   PM  PM      PM--|   PM  PM
    E S S E E E E E E   E S S E E E E E E
C#|-------------------|-------------------|
G#|-------------------|-------------------|
E |---------5---------|-------------------|
B |-------------3---7-|---------5---------|
F#|-------------------|-------------3---7-|
B |-3-3-3-3---3---3---|-3-3-3-3---3---3---|

|   PM--|   PM  PM      PM--|   PM  PM
| E S S E E E E E E   E S S E E E E E E

C#|-------------------|-------------------|
G#|-------------------|-------------------|
E |---------5---------|-------------------|
B |-------------3---7-|---------5---------|
F#|-------------------|-------------3---7-|
B |-3-3-3-3---3---3---|-3-3-3-3---3---3---|

    PM--|   PM  PM      PM--|
  E S S E E E E E E   E S S E E S S S S S S S S

C#|-------------------|----------------------------|
G#|-------------------|----------------------------|
E |---------5---------|---------0h2p0h2p0----------|
B |-------------3---7-|-------------------3p0h3p0--|
F#|-------------------|----------------------------|
B |-3-3-3-3---3---3---|-3-3-3-3--------------------|


|   PM--|   PM  PM      PM--|
| E S S E E E E E E   E S S E E S S S S S S S S

C#|-------------------|----------------------------|
G#|-------------------|----------------------------|
E |---------5---------|---------0h2p0h2p0----------|
B |-------------3---7-|-------------------3p0h3p0--|
F#|-------------------|----------------------------|
B |-3-3-3-3---3---3---|-3-3-3-3--------------------|

      PM--|
    E S S S S E E E E E   S S S S S S S S  S  S  S  S S S S S
C#|---------------------|-------------------------------------|
G#|---------------------|-------------------------------------|
E |---------------------|-------------------------------------|
B |---------------------|-7-7-7-7---------10-10-10-10---------|
F#|---------------------|---------8-8-8-8-------------7-7-7-7-|
B |-0-0-0-0---0---0---0-|-------------------------------------|

  |   PM--|
  | E S S S S E E E E E   S S S S S S S S  S  S  S  S S S S S
C#|---------------------|-------------------------------------|
G#|---------------------|-------------------------------------|
E |---------------------|-------------------------------------|
B |---------------------|-7-7-7-7---------10-10-10-10---------|
F#|---------------------|---------8-8-8-8-------------7-7-7-7-|
B |-0-0-0-0---0---0---0-|-------------------------------------|

      PM--|
    E S S S S E E E E E   E E E E E E E E
C#|---------------------|-----------------|
G#|---------------------|-----------------|
E |---------------------|-2---0-2-0-------|
B |---------------------|---3-------3-2---|
F#|---------------------|---------------3-|
B |-0-0-0-0---0---0---0-|-----------------|

  |   PM--|
  | E S S S S E E E E E   E E E E E E E E
C#|---------------------|-----------------|
G#|---------------------|-1---0-1-0-------|
E |---------------------|---2-------2-0---|
B |---------------------|---------------3-|
F#|---------------------|-----------------|
B |-0-0-0-0---0---0---0-|-----------------|

      PM--|
    E S S S S E E E E E   S S S S S S S S  S  S  S  S S S S S
C#|---------------------|-------------------------------------|
G#|---------------------|-------------------------------------|
E |---------------------|-------------------------------------|
B |---------------------|-7-7-7-7---------10-10-10-10---------|
F#|---------------------|---------8-8-8-8-------------7-7-7-7-|
B |-0-0-0-0---0---0---0-|-------------------------------------|

  |   PM--|
  | E S S S S E E E E E   S S S S S S S S  S  S  S  S S S S S
C#|---------------------|-------------------------------------|
G#|---------------------|-------------------------------------|
E |---------------------|-------------------------------------|
B |---------------------|-7-7-7-7---------10-10-10-10---------|
F#|---------------------|---------8-8-8-8-------------7-7-7-7-|
B |-0-0-0-0---0---0---0-|-------------------------------------|

      PM--|
    E S S S S E E E E E   E E E E E  E E E
C#|---------------------|------------------|
G#|---------------------|------------------|
E |---------------------|------------------|
B |---------------------|---------5--7-----|
F#|---------------------|-0-5-7-8------8-7-|
B |-0-0-0-0---0---0---0-|------------------|

  |   PM--|
  | E S S S S E E E E E   E E E E E  E E E
C#|---------------------|------------------|
G#|---------------------|------------------|
E |---------------------|------------------|
B |---------------------|-------7-9-10-7-5-|
F#|---------------------|-0-5-7------------|
B |-0-0-0-0---0---0---0-|------------------|

    PM--|               PM--|
  E S S E E E E E E   E S S E E E E E E
C#|-------------------|-------------------|
G#|-------------------|-------------------|
E |---------5---------|-------------------|
B |-------------3---7-|---------5---------|
F#|-------------------|-------------3---7-|
B |-3-3-3-3---3---3---|-3-3-3-3---3---3---|

|   PM--|               PM--|
| E S S E E E E E E   E S S E E E E E E

C#|-------------------|-------------------|
G#|-------------------|-------------------|
E |---------5---------|-------------------|
B |-------------3---7-|---------5---------|
F#|-------------------|-------------3---7-|
B |-3-3-3-3---3---3---|-3-3-3-3---3---3---|

    PM--|               PM--|
  E S S E E E E E E   E S S E E S S S S S S S S
C#|-------------------|----------------------------|
G#|-------------------|----------------------------|
E |---------5---------|---------0h2p0h2p0----------|
B |-------------3---7-|-------------------3p0-3p0--|
F#|-------------------|----------------------------|
B |-3-3-3-3---3---3---|-3-3-3-3--------------------|

|   PM--|               PM--|
| E S S E E E E E E   E S S E E S S S S S S S S
C#|-------------------|----------------------------|
G#|-------------------|---------0h1p0h1p0----------|
E |---------5---------|-------------------2p0h2p0--|
B |-------------3---7-|----------------------------|
F#|-------------------|----------------------------|
B |-3-3-3-3---3---3---|-3-3-3-3--------------------|

[Chorus 1]
  Q=185
  |----------3----------|   |-------------3-------------|
  E E E E E E E E E E E E   E E E E E E  E  E  E  E  E  E
C#|-------------------------|-------------------------------|
G#|-------------------------|-------------------------------|
E |-------------------------|-------------------------------|
B |-7-7-7-3-3-3-5-5-5-7-7-7-|-3-3-3-5-5-5--7--7--7--3--3--3-|
F#|-------------------------|-------------------------------|
B |-------------------------|-------------------------------|

| PM-------------------------------------------------------
| |----------3----------|   |-------------3-------------|
| E E E E E E E E E E E E   E E E E E E  E  E  E  E  E  E
C#|-------------------------|-------------------------------|
G#|-------------------------|-------------------------------|
E |-------------------------|-------------------------------|
B |-------------------------|-------------------------------|
F#|-8-8-8-8-8-8-8-8-8-8-8-8-|-8-8-8-8-8-8-10-10-10-10-10-10-|
B |-8-8-8-8-8-8-8-8-8-8-8-8-|-8-8-8-8-8-8-10-10-10-10-10-10-|

  |----------3----------|   |----------3----------|
  E E E E E E E E E E E E   E E E E E E E E E E E E
C#|-------------------------|----------------------------|
G#|-------------------------|----------------------------|
E |-------------------------|----------------------------|
B |-5-5-5-2-2-2-3-3-3-5-5-5-|-3-3-3-2-2-2----------------|
F#|-------------------------|-------------5-5-5-3-3-3----|
B |-------------------------|----------------------------|

|-------------------------------------------------|
| |----------3----------|   |----------3----------|
| E E E E E E E E E E E E   E E E E E E E E E E E E
C#|-------------------------|----------------------------|
G#|-------------------------|----------------------------|
E |-------------------------|----------------------------|
B |-------------------------|----------------------------|
F#|-2-2-2-2-2-2-2-2-2-2-2-2-|-3-3-3-3-3-3-0-0-0-0-0-0----|
B |-2-2-2-2-2-2-2-2-2-2-2-2-|-3-3-3-3-3-3-0-0-0-0-0-0----|

  |----------3----------|   |-------------3-------------|
  E E E E E E E E E E E E   E E E E E E  E  E  E  E  E  E
C#|-------------------------|-------------------------------|
G#|-------------------------|-------------------------------|
E |-------------------------|-------------------------------|
B |-7-7-7-3-3-3-5-5-5-7-7-7-|-3-3-3-5-5-5--7--7--7--3--3--3-|
F#|-------------------------|-------------------------------|
B |-------------------------|-------------------------------|

| PM-------------------------------------------------------
| |----------3----------|   |-------------3-------------|
| E E E E E E E E E E E E   E E E E E E  E  E  E  E  E  E
C#|-------------------------|-------------------------------|
G#|-------------------------|-------------------------------|
E |-------------------------|-------------------------------|
B |-------------------------|-------------------------------|
F#|-8-8-8-8-8-8-8-8-8-8-8-8-|-8-8-8-8-8-8-10-10-10-10-10-10-|
B |-8-8-8-8-8-8-8-8-8-8-8-8-|-8-8-8-8-8-8-10-10-10-10-10-10-|

                                         ~~~
  |----------3----------|   |-3-| |-3-|
  E E E E E E E E E E E E   E E E E E E  H
C#|-------------------------|--------------------|
G#|-------------------------|--------------------|
E |-------------------------|--------------------|
B |-5-5-5-2-2-2-3-3-3-5-5-5-|-3-3-3-2-2-2--------|
F#|-------------------------|--------------------|
B |-------------------------|-------------[3]----|

|-------------------------------------|  ~~~
| |----------3----------|   |----3----|
| E E E E E E E E E E E E   E E E E E E  H
C#|-------------------------|--------------------|
G#|-------------------------|--------------------|
E |-------------------------|--------------------|
B |-------------------------|--------------------|
F#|-2-2-2-2-2-2-2-2-2-2-2-2-|-3-3-3-3-3-3--------|
B |-2-2-2-2-2-2-2-2-2-2-2-2-|-3-3-3-3-3-3-[3]----|

[Verse 2]
    Q=205
      PM--|
    E S S S S E E E E E   S S S S S S S S  S  S  S  S S S S S
C#|---------------------|-------------------------------------|
G#|---------------------|-------------------------------------|
E |---------------------|-------------------------------------|
B |---------------------|-7-7-7-7---------10-10-10-10---------|
F#|---------------------|---------8-8-8-8-------------7-7-7-7-|
B |-0-0-0-0---0---0---0-|-------------------------------------|

  |   PM--|
  | E S S S S E E E E E   S S S S S S S S  S  S  S  S S S S S
C#|---------------------|-------------------------------------|
G#|---------------------|-------------------------------------|
E |---------------------|-------------------------------------|
B |---------------------|-7-7-7-7---------10-10-10-10---------|
F#|---------------------|---------8-8-8-8-------------7-7-7-7-|
B |-0-0-0-0---0---0---0-|-------------------------------------|

      PM--|
    E S S S S E E E E E   E E E E E E E E
C#|---------------------|-----------------|
G#|---------------------|-----------------|
E |---------------------|-2---0-2-0-------|
B |---------------------|---3-------3-2---|
F#|---------------------|---------------3-|
B |-0-0-0-0---0---0---0-|-----------------|

  |   PM--|
  | E S S S S E E E E E   E E E E E E E E
C#|---------------------|-----------------|
G#|---------------------|-1---0-1-0-------|
E |---------------------|---2-------2-0---|
B |---------------------|---------------3-|
F#|---------------------|-----------------|
B |-0-0-0-0---0---0---0-|-----------------|

      PM--|
    E S S S S E E E E E   S S S S S S S S  S  S  S  S S S S S
C#|---------------------|-------------------------------------|
G#|---------------------|-------------------------------------|
E |---------------------|-------------------------------------|
B |---------------------|-7-7-7-7---------10-10-10-10---------|
F#|---------------------|---------8-8-8-8-------------7-7-7-7-|
B |-0-0-0-0---0---0---0-|-------------------------------------|

  |   PM--|
  | E S S S S E E E E E   S S S S S S S S  S  S  S  S S S S S
C#|---------------------|-------------------------------------|
G#|---------------------|-------------------------------------|
E |---------------------|-------------------------------------|
B |---------------------|-7-7-7-7---------10-10-10-10---------|
F#|---------------------|---------8-8-8-8-------------7-7-7-7-|
B |-0-0-0-0---0---0---0-|-------------------------------------|

      PM--|
    E S S S S E E E E E   E E E E E  E E E
C#|---------------------|------------------|
G#|---------------------|------------------|
E |---------------------|------------------|
B |---------------------|---------5--7-----|
F#|---------------------|-0-5-7-8------8-7-|
B |-0-0-0-0---0---0---0-|------------------|

  |   PM--|
  | E S S S S E E E E E   E E E E E  E E E
C#|---------------------|------------------|
G#|---------------------|------------------|
E |---------------------|------------------|
B |---------------------|-------7-9-10-7-5-|
F#|---------------------|-0-5-7------------|
B |-0-0-0-0---0---0---0-|------------------|

    PM--|               PM--|
  E S S E E E E E E   E S S E E E E E E
C#|-------------------|-------------------|
G#|-------------------|-------------------|
E |---------5---------|-------------------|
B |-------------3---7-|---------5---------|
F#|-------------------|-------------3---7-|
B |-3-3-3-3---3---3---|-3-3-3-3---3---3---|

|   PM--|               PM--|
| E S S E E E E E E   E S S E E E E E E
C#|-------------------|-------------------|
G#|-------------------|-------------------|
E |---------5---------|-------------------|
B |-------------3---7-|---------5---------|
F#|-------------------|-------------3---7-|
B |-3-3-3-3---3---3---|-3-3-3-3---3---3---|

    PM--|               PM--|
  E S S E E E E E E   E S S E E S S S S S S S S
C#|-------------------|----------------------------|
G#|-------------------|----------------------------|
E |---------5---------|---------0h2p0h2p0----------|
B |-------------3---7-|-------------------3p0h3p0--|
F#|-------------------|----------------------------|
B |-3-3-3-3---3---3---|-3-3-3-3--------------------|

|   PM--|               PM--|
| E S S E E E E E E   E S S E E S S S S S S S S

C#|-------------------|----------------------------|
G#|-------------------|---------0h1p0h1p0----------|
E |---------5---------|-------------------2p0h2p0--|
B |-------------3---7-|----------------------------|
F#|-------------------|----------------------------|
B |-3-3-3-3---3---3---|-3-3-3-3--------------------|

[Chorus 2]
    Q=185
    |----------3----------|   |-------------3-------------|
    E E E E E E E E E E E E   E E E E E E  E  E  E  E  E  E
C#|--------------------------|-------------------------------|
G#|o-------------------------|-------------------------------|
E |--------------------------|-------------------------------|
B |--7-7-7-3-3-3-5-5-5-7-7-7-|-3-3-3-5-5-5--7--7--7--3--3--3-|
F#|o-------------------------|-------------------------------|
B |--------------------------|-------------------------------|

|   PM-------------------------------------------------------
|   |----------3----------|   |-------------3-------------|
|   E E E E E E E E E E E E   E E E E E E  E  E  E  E  E  E
C#|--------------------------|-------------------------------|
G#|o-------------------------|-------------------------------|
E |--------------------------|-------------------------------|
B |--------------------------|-------------------------------|
F#|o-8-8-8-8-8-8-8-8-8-8-8-8-|-8-8-8-8-8-8-10-10-10-10-10-10-|
B |--8-8-8-8-8-8-8-8-8-8-8-8-|-8-8-8-8-8-8-10-10-10-10-10-10-|

  |----------3----------|   |----------3----------|
  E E E E E E E E E E E E   E E E E E E E E E E E E
C#|-------------------------|--------------------------|---|
G#|-------------------------|-------------------------o|---|
E |-------------------------|--------------------------|---|
B |-5-5-5-2-2-2-3-3-3-5-5-5-|-3-3-3-2-2-2--------------|---|
F#|-------------------------|-------------5-5-5-3-3-3-o|---|
B |-------------------------|--------------------------|---|

|-------------------------------------------------|
| |----------3----------|   |----------3----------|
| E E E E E E E E E E E E   E E E E E E E E E E E E
C#|-------------------------|--------------------------|---|
G#|-------------------------|-------------------------o|---|
E |-------------------------|--------------------------|---|
B |-------------------------|--------------------------|---|
F#|-2-2-2-2-2-2-2-2-2-2-2-2-|-3-3-3-3-3-3-0-0-0-0-0-0-o|---|
B |-2-2-2-2-2-2-2-2-2-2-2-2-|-3-3-3-3-3-3-0-0-0-0-0-0--|---|
    
  |----------3----------|   |-------------3-------------|
  E E E E E E E E E E E E   E E E E E E  E  E  E  E  E  E
C#|-------------------------|-------------------------------|
G#|-------------------------|-------------------------------|
E |-------------------------|-------------------------------|
B |-7-7-7-3-3-3-5-5-5-7-7-7-|-3-3-3-5-5-5--7--7--7--3--3--3-|
F#|-------------------------|-------------------------------|
B |-------------------------|-------------------------------|

| |----------3----------|   |-------------3-------------|
| E E E E E E E E E E E E   E E E E E E  E  E  E  E  E  E
C#|-------------------------|-------------------------------|
G#|-------------------------|-------------------------------|
E |-5-5-5-2-2-2-4-4-4-5-5-5-|-2-2-2-4-4-4--5--5--5--2--2--2-|
B |-------------------------|-------------------------------|
F#|-------------------------|-------------------------------|
B |-------------------------|-------------------------------|

(Gtr 1)
| PM-------------------------------------------------------
| |----------3----------|   |-------------3-------------|
| E E E E E E E E E E E E   E E E E E E  E  E  E  E  E  E
C#|-------------------------|-------------------------------|
G#|-------------------------|-------------------------------|
E |-------------------------|-------------------------------|
B |-------------------------|-------------------------------|
F#|-8-8-8-8-8-8-8-8-8-8-8-8-|-8-8-8-8-8-8-10-10-10-10-10-10-|
B |-8-8-8-8-8-8-8-8-8-8-8-8-|-8-8-8-8-8-8-10-10-10-10-10-10-|

  |----------3----------|   |----------3----------|
  E E E E E E E E E E E E   E E E E E E E E E E E E
C#|-------------------------|----------------------------|
G#|-------------------------|----------------------------|
E |-------------------------|----------------------------|
B |-5-5-5-2-2-2-3-3-3-5-5-5-|-3-3-3-2-2-2----------------|
F#|-------------------------|-------------5-5-5-3-3-3----|
B |-------------------------|----------------------------|

| |----------3----------|   |----------3----------|
| E E E E E E E E E E E E   E E E E E E E E E E E E
C#|-------------------------|----------------------------|
G#|-5-5-5-------5-5-5-------|-6-6-6-5-5-5-3-3-3----------|
E |-------2-2-2-------2-2-2-|-------------------5-5-5----|
B |-------------------------|----------------------------|
F#|-------------------------|----------------------------|
B |-------------------------|----------------------------|

|-------------------------------------------------|
| |----------3----------|   |----------3----------|
| E E E E E E E E E E E E   E E E E E E E E E E E E
C#|-------------------------|----------------------------|
G#|-------------------------|----------------------------|
E |-------------------------|----------------------------|
B |-------------------------|----------------------------|
F#|-2-2-2-2-2-2-2-2-2-2-2-2-|-3-3-3-3-3-3-0-0-0-0-0-0----|
B |-2-2-2-2-2-2-2-2-2-2-2-2-|-3-3-3-3-3-3-0-0-0-0-0-0----|

  |----------3----------|   |-------------3-------------|
  E E E E E E E E E E E E   E E E E E E  E  E  E  E  E  E
C#|-------------------------|-------------------------------|
G#|-------------------------|-------------------------------|
E |-------------------------|-------------------------------|
B |-7-7-7-3-3-3-5-5-5-7-7-7-|-3-3-3-5-5-5--7--7--7--3--3--3-|
F#|-------------------------|-------------------------------|
B |-------------------------|-------------------------------|

| |----------3----------|   |-------------3-------------|
| E E E E E E E E E E E E   E E E E E E  E  E  E  E  E  E
C#|-------------------------|-------------------------------|
G#|-------------------------|-------------------------------|
E |-5-5-5-2-2-2-4-4-4-5-5-5-|-2-2-2-4-4-4--5--5--5--2--2--2-|
B |-------------------------|-------------------------------|
F#|-------------------------|-------------------------------|
B |-------------------------|-------------------------------|

| PM-------------------------------------------------------
| |----------3----------|   |-------------3-------------|
| E E E E E E E E E E E E   E E E E E E  E  E  E  E  E  E
C#|-------------------------|-------------------------------|
G#|-------------------------|-------------------------------|
E |-------------------------|-------------------------------|
B |-------------------------|-------------------------------|
F#|-8-8-8-8-8-8-8-8-8-8-8-8-|-8-8-8-8-8-8-10-10-10-10-10-10-|
B |-8-8-8-8-8-8-8-8-8-8-8-8-|-8-8-8-8-8-8-10-10-10-10-10-10-|

                                               ~~~
  |----------3----------|   |-------3-------|
  E E E E E E E E E E E E   E E E E E E E E E  Q
C#|-------------------------|--------------------------|
G#|-------------------------|--------------------------|
E |-------------------------|--------------------------|
B |-5-5-5-2-2-2-3-3-3-5-5-5-|-3-3-3-2-2-2--------------|
F#|-------------------------|-------------5-5-5-[3]----|
B |-------------------------|--------------------------|

|                                              ~~~
| |----------3----------|   |-------3-------|
| E E E E E E E E E E E E   E E E E E E E E E  Q
C#|-------------------------|--------------------------|
G#|-5-5-5-------5-5-5-------|-6-6-6-5-5-5-3-3-3--------|
E |-------2-2-2-------2-2-2-|-------------------[5]----|
B |-------------------------|--------------------------|
F#|-------------------------|--------------------------|
B |-------------------------|--------------------------|

|-------------------------------------------|
| |----------3----------|   |-------3-------|
| E E E E E E E E E E E E   E E E E E E E E E
C#|-------------------------|--------------------------|
G#|-------------------------|--------------------------|
E |-------------------------|--------------------------|
B |-------------------------|--------------------------|
F#|-2-2-2-2-2-2-2-2-2-2-2-2-|-3-3-3-3-3-3-0-0-0--------|
B |-2-2-2-2-2-2-2-2-2-2-2-2-|-3-3-3-3-3-3-0-0-0--------|

[Breakdown]
    Q=160    
    PM--------------------|
    S E S E S S S E S E S S   S S S S S S S S S S S S S S S S
C#|--------------------------|---------------------------------|
G#|o-------------------------|---------------------------------|
E |--------------------------|---------------0h2p0-------------|
B |--------------------------|-3p2p0---0h2h3-------3p2-2h3p2---|
F#|o-0-0-0-0-0-0-0-0-0-0-0-0-|-------3-----------------------3-|
B |--0-0-0-0-0-0-0-0-0-0-0-0-|---------------------------------|
     
|   PM--------------------|
|   S E S E S S S E S E S S   W
C#|--------------------------|---------------------------------|
G#|o-------------------------|---------------------------------|
E |--------------------------|---------------------------------|
B |--------------------------|---------------------------------|
F#|o-0-0-0-0-0-0-0-0-0-0-0-0-|---------------------------------|
B |--0-0-0-0-0-0-0-0-0-0-0-0-|---------------------------------|

  PM--------------------|
  S E S E S S S E S E S S   W
C#|-------------------------|---------------------------------|
G#|-------------------------|--------------------------------o|
E |-------------------------|---------------------------------|
B |-------------------------|---------------------------------|
F#|-0-0-0-0-0-0-0-0-0-0-0-0-|--------------------------------o|
B |-0-0-0-0-0-0-0-0-0-0-0-0-|---------------------------------|

| PM--------------------|
| S E S E S S S E S E S S   S S S S S S S S S S S S S S S S
C#|-------------------------|---------------------------------|
G#|-------------------------|--------------------------------o|
E |-------------------------|---------------0h2p0-------------|
B |-------------------------|-3p2p0---0h2h3-------3p2-2h3p2---|
F#|-0-0-0-0-0-0-0-0-0-0-0-0-|-------3-----------------------3o|
B |-0-0-0-0-0-0-0-0-0-0-0-0-|---------------------------------|

    PM-----------------------------------------
    S E S E S S S E S E S S          W
C#|-------------------------|-----------------|
G#|-------------------------|-----------------|
E |-------------------------|-----------------|
B |-------------------------|-----------------|
F#|-0-0-0-0-0-0-0-0-0-0-0-0-|-----------------|
B |-0-0-0-0-0-0-0-0-0-0-0-0-|-----------------|
|
  | PM-----------------------------------------
  | S E S E S S S E S E S S          W
C#|-------------------------|-----------------|
G#|-------------------------|-----------------|
E |-------------------------|-----------------|
B |-------------------------|-----------------|
F#|-0-0-0-0-0-0-0-0-0-0-0-0-|-----------------|
B |-0-0-0-0-0-0-0-0-0-0-0-0-|-----------------|

 -----------------------|
  S E S E S S S E S E S S    S S S S S S S S S S S S S S S S

C#|-------------------------|----------------------------------|
G#|-------------------------|----------------------------------|
E |-------------------------|----------------0h2p0-------------|
B |-------------------------|--3p2p0---0h2h3-------3p2-2h3p2---|
F#|-0-0-0-0-0-0-0-0-0-0-0-0-|--------3-----------------------3-|
B |-0-0-0-0-0-0-0-0-0-0-0-0-|----------------------------------|

|-----------------------|
| S E S E S S S E S E S S                    W
C#|-------------------------|----------------------------------|
G#|-------------------------|----------------------------------|
E |-------------------------|----------------------------------|
B |-------------------------|----------------------------------|
F#|-0-0-0-0-0-0-0-0-0-0-0-0-|----------------------------------|
B |-0-0-0-0-0-0-0-0-0-0-0-0-|----------------------------------|

    PM----------------------------------------
    S E S E S S S E S E S S         W
C#|-------------------------|----------------|
G#|-------------------------|----------------|
E |-------------------------|----------------|
B |-------------------------|----------------|
F#|-0-0-0-0-0-0-0-0-0-0-0-0-|----------------|
B |-0-0-0-0-0-0-0-0-0-0-0-0-|----------------|
|
  | PM----------------------------------------
  | S E S E S S S E S E S S         W
C#|-------------------------|----------------|
G#|-------------------------|----------------|
E |-------------------------|----------------|
B |-------------------------|----------------|
F#|-0-0-0-0-0-0-0-0-0-0-0-0-|----------------|
B |-0-0-0-0-0-0-0-0-0-0-0-0-|----------------|

 -----------------------|
  S E S E S S S E S E S S         W
C#|-------------------------|------------|
G#|-------------------------|------------|
E |-------------------------|------------|
B |-------------------------|------------|
F#|-0-0-0-0-0-0-0-0-0-0-0-0-|------------|
B |-0-0-0-0-0-0-0-0-0-0-0-0-|------------|

|-----------------------|
| S E S E S S S E S E S S         W
C#|-------------------------|------------|
G#|-------------------------|------------|
E |-------------------------|------------|
B |-------------------------|------------|
F#|-0-0-0-0-0-0-0-0-0-0-0-0-|------------|
B |-0-0-0-0-0-0-0-0-0-0-0-0-|------------|

[Bridge]
(Gtr 1)
    E E E E Q  S S S S    S  S S S S S S S S S S S Q
C#|--------------------|------------------------------|
G#|--------------------|------------------------------|
E |------------------4h|==6p=4-----------4h6p4--------|
B |-4-7-6-7-4--0h6h7---|-------7p6p0h6h7-------7p6----|
F#|--------------------|---------------------------7--|
B |--------------------|------------------------------|

(Gtr 2)
  | W                    +H                H
C#|--------------------|------------------------------|
G#|--------------------|------------------------------|
E |--------------------|------------------------------|
B |--------------------|------------------------------|
F#|-0------------------|-(0)---------------2----------|
B |-0------------------|-(0)---------------2----------|

    E E E E Q  S S S S    S  S S S S S S S Q  Q
C#|--------------------|--------------------------|
G#|--------------------|-----------------0-5------|
E |------------------4h|==6p=4----------------7---|
B |-4-7-6-7-4--0h6h7---|-------7p6p0h6h7----------|
F#|--------------------|--------------------------|
B |--------------------|--------------------------|

  | W                    +W
C#|--------------------|--------------------------|
G#|--------------------|--------------------------|
E |--------------------|--------------------------|
B |--------------------|--------------------------|
F#|-4------------------|-(4)----------------------|
B |-4------------------|-(4)----------------------|

    E E E E Q  S S S S    S  S S S S S S S S S S S Q
C#|--------------------|------------------------------|
G#|--------------------|------------------------------|
E |------------------4h|==6p=4-----------4h6p4--------|
B |-4-7-6-7-4--0h6h7---|-------7p6p0h6h7-------7p6----|
F#|--------------------|---------------------------7--|
B |--------------------|------------------------------|

  | W                    +H                H
C#|--------------------|------------------------------|
G#|--------------------|------------------------------|
E |--------------------|------------------------------|
B |--------------------|------------------------------|
F#|-7------------------|-(7)---------------7----------|
B |-7------------------|-(7)---------------7----------|

    E E E E Q  S S S S    S  S S S S S S S Q  Q
C#|--------------------|--------------------------|
G#|--------------------|-----------------0-5------|
E |------------------4h|==6p=4----------------7---|
B |-4-7-6-7-4--0h6h7---|-------7p6p0h6h7----------|
F#|--------------------|--------------------------|
B |--------------------|--------------------------|

  | W                    +H                Q  Q
C#|--------------------|--------------------------|
G#|--------------------|--------------------------|
E |--------------------|--------------------------|
B |--------------------|-------------------6--4---|
F#|-2------------------|-(2)----------------------|
B |-2------------------|-(2)----------------------|

    E E E E Q  E E    E  E Q  E E Q    E E E E H       H     E E Q
C#|----------------|-----------------|--------------|---------------|
G#|----------------|-----------------|--------------|---------------|
E |------------4---|--------------4--|-6-4----------|--6------------|
B |-4-7-6-7-4----7-|--6--7----6-7----|-----7-6-7----|--------7-6----|
F#|----------------|-------7---------|--------------|------------7--|
B |----------------|-----------------|--------------|---------------|

  | W                +H       H        W              +W
C#|----------------|-----------------|--------------|---------------|
G#|----------------|-----------------|--------------|---------------|
E |----------------|-----------------|--------------|---------------|
B |----------------|-----------------|--------------|---------------|
F#|-0--------------|-(0)------2------|-4------------|-(4)-----------|
B |-0--------------|-(0)------2------|-4------------|-(4)-----------|

    E E E E E E E E    E  E E E E E E E   E E E E E E E E    E  E E E Q  Q
C#|-----------------|-------------------|-----------------|-----------------|
G#|-------5---------|-------------------|-------5---------|-----------5-----|
E |-6---------------|--6--------4-------|-6---------------|--6--6-4-4----7--|
B |---7-6---7-7-6-7-|-----7-6-7---7-6-7-|---7-6---7-7-6-7-|-----------------|
F#|-----------------|-------------------|-----------------|-----------------|
B |-----------------|-------------------|-----------------|-----------------|

  | W                 +H        H         W                 +H        Q  Q
C#|-----------------|-------------------|-----------------|-----------------|
G#|-----------------|-------------------|-----------------|-----------------|
E |-----------------|-------------------|-----------------|-----------------|
B |-----------------|-------------------|-----------------|-----------6--4--|
F#|-7---------------|-(7)-------7-------|-2---------------|-(2)-------------|
B |-7---------------|-(7)-------7-------|-2---------------|-(2)-------------|

[Fast Bit]
  Q=225
            PM  PM    PM  PM  PM  PM    PM
    Q  Q  E E E E   E E E E E E E E   E E E E S S E E E   S S E E E Q  Q
C#|---------------|-----------------|-------------------|-------------------|
G#|---------------|-----------------|-------------------|-------------------|
E |---------------|-----------------|-------------------|-0h2p0-------------|
B |---------------|-----------------|---------0h2p0-----|-------3p2---------|
F#|-0--0--7---8---|-7---3---5---7---|-3---2---------3h5-|-----------3--5----|
B |-0--0----0---0-|---0---0---0---0-|---0---0-----------|-------------------|
| 
  | Q  Q  H         W                 W                   S S E E E Q  Q
C#|---------------|-----------------|-------------------|-------------------|
G#|---------------|-----------------|-------------------|-------------------|
E |---------------|-----------------|-------------------|-0h2p0-------------|
B |---------------|-----------------|-------------------|-------3p2---------|
F#|-0--0----------|-----------------|-------------------|-----------3--5----|
B |-0--0----------|-----------------|-------------------|-------------------|

            PM  PM    PM  PM   PM   PM    PM  PM
    Q  Q  E E E E   E E E E  E E  E E   E E E E S S S S S S S S
C#|---------------|-------------------|-------------------------|
G#|---------------|-------------------|-------------------------|
E |---------------|-------------------|-------------------------|
B |---------------|-------------------|---------3p0h3p0h3p0h3p0-|
F#|-0--0--7---8---|-7---3---10---12---|-8---7-------------------|
B |-0--0----0---0-|---0---0----0----0-|---0---0-----------------|
|
  | Q  Q  H         W                   H       S S S S S S S S
C#|---------------|-------------------|-------------------------|
G#|---------------|-------------------|-------------------------|
E |---------------|-------------------|-------------------------|
B |---------------|-------------------|---------3p0h3p0h3p0h3p0-|
F#|-0--0----------|-------------------|-------------------------|
B |-0--0----------|-------------------|-------------------------|

    S S S S S S S S S S S S S S S S
C#|------------------------------------|
G#|------------------------------------|
E |-5p0h5p0h5p0h5p0h4p0h4p0h4p0h4p0----|
B |------------------------------------|
F#|------------------------------------|
B |------------------------------------|
|
  | S S S S S S S S S S S S S S S S
C#|------------------------------------|
G#|------------------------------------|
E |-5p0h5p0h5p0h5p0h4p0h4p0h4p0h4p0----|
B |------------------------------------|
F#|------------------------------------|
B |------------------------------------|

            PM  PM    PM  PM  PM  PM    PM  PM
    Q  Q  E E E E   E E E E E E E E   E E E E S.S E E E   S S E E E Q  Q
C#|---------------|-----------------|-------------------|-----------------|
G#|---------------|-----------------|-------------------|-----------------|
E |---------------|-----------------|-------------------|-0h2p0-----------|
B |---------------|-----------------|---------0h2p0-----|-------3p2-------|
F#|-0--0--7---8---|-7---3---5---7---|-3---2---------3h5-|-----------3--5--|
B |-0--0----0---0-|---0---0---0---0-|---0---0-----------|-----------------|

  |         PM  PM    PM  PM  PM  PM    PM  PM
  | Q  Q  E E E E   E E E E E E E E   E E E E S.S E E E   S S E E E Q  Q
C#|---------------|-----------------|-------------------|-----------------|
G#|---------------|-----------------|-------------------|-----------------|
E |---------------|-----------------|-------------------|-0h2p0-----------|
B |---------------|-----------------|---------0h2p0-----|-------3p2-------|
F#|-0--0--7---8---|-7---3---5---7---|-3---2---------3h5-|-----------3--5--|
B |-0--0----0---0-|---0---0---0---0-|---0---0-----------|-----------------|

            PM  PM    PM  PM   PM   PM
    Q  Q  E E E E   E E E E  E E  E E
C#|---------------|-------------------|
G#|---------------|-------------------|
E |---------------|-------------------|
B |---------------|-------------------|
F#|-0--0--7---8---|-7---3---10---12---|
B |-0--0----0---0-|---0---0----0----0-|

  |         PM  PM    PM  PM   PM   PM
  | Q  Q  E E E E   E E E E  E E  E E
C#|---------------|-------------------|
G#|---------------|-------------------|
E |---------------|-------------------|
B |---------------|-------------------|
F#|-0--0--7---8---|-7---3---10---12---|
B |-0--0----0---0-|---0---0----0----0-|

      PM  PM
    E E E E S S S S S S S S   S S S S S S S S S S S S S S S S
C#|-------------------------|---------------------------------|
G#|-------------------------|---------------------------------|
E |-------------------------|-5p0h5p0h5p0h5p0h4p0h4p0h4p0h4p0-|
B |---------3p0h3p0h3p0h3p0-|---------------------------------|
F#|-8---7-------------------|---------------------------------|
B |---0---0-----------------|---------------------------------|

  |   PM  PM
  | E E E E S S S S S S S S   S S S S S S S S S S S S S S S S
C#|-------------------------|---------------------------------|
G#|-------------------------|---------------------------------|
E |-------------------------|-5p0h5p0h5p0h5p0h4p0h4p0h4p0h4p0-|
B |---------3p0h3p0h3p0h3p0-|---------------------------------|
F#|-8---7-------------------|---------------------------------|
B |---0---0-----------------|---------------------------------|

               PM  PM    PM  PM  PM  PM
    Q  Q     E E E E   E E E E E E E E
C#|------------------|-----------------|
G#|------------------|-----------------|
E |------------------|-----------------|
B |------------------|-----------------|
F#|-0--0-----7---8---|-7---3---5---7---|
B |-0--0-------0---0-|---0---0---0---0-|

  |    PM--|
  | Q  S S E H         W
C#|------------------|-----------------|
G#|------------------|-----------------|
E |------------------|-----------------|
B |------------------|-----------------|
F#|-0----------------|-----------------|
B |-0--0-0-0---------|-----------------|

      PM    PM
    E E E   E S S E  E  E   S S E E E Q  Q
C#|-----------------------|-------------------|
G#|-----------------------|-------------------|
E |-----------------------|-0h2p0-------------|
B |-----------0h2p0-------|-------3p2---------|
F#|-3---2------------3h=5-|-----------3--5----|
B |---0-----0-------------|-------------------|

  | PM  PM--|
  | E E S S E S S E  E  E   S S E E E Q  Q
C#|-----------------------|-------------------|
G#|-----------------------|-------------------|
E |-----------------------|-0h2p0-------------|
B |-----------0h2p0-------|-------3p2---------|
F#|------------------3h=5-|-----------3--5----|
B |-0---0-0-0-------------|-------------------|

               PM  PM    PM  PM   PM   PM
    Q  Q     E E E E   E E E E  E E  E E
C#|------------------|-------------------|
G#|------------------|-------------------|
E |------------------|-------------------|
B |------------------|-------------------|
F#|-0--0-----7---8---|-7---3---10---12---|
B |-0--0-------0---0-|---0---0----0----0-|

  |    PM--|
  | Q  S S E H         W
C#|------------------|-------------------|
G#|------------------|-------------------|
E |------------------|-------------------|
B |------------------|-------------------|
F#|-0----------------|-------------------|
B |-0--0-0-0---------|-------------------|

      PM    PM
    E E E   E S S S S S S S S   S S S S S S S S S S S S S S S S
C#|---------------------------|----------------------------------|
G#|---------------------------|----------------------------------|
E |---------------------------|-5p0h5p0h5p0h5p0h4p0h4p0h4p0h4p0--|
B |-----------3p0h3p0h3p0h3p0-|----------------------------------|
F#|-8---7---------------------|----------------------------------|
B |---0-----0-----------------|----------------------------------|

| PM------|
| E E S S E S S S S S S S S   S S S S S S S S S S S S S S S S

C#|---------------------------|----------------------------------|
G#|---------------------------|----------------------------------|
E |---------------------------|-5p0h5p0h5p0h5p0h4p0h4p0h4p0h4p0--|
B |-----------3p0h3p0h3p0h3p0-|----------------------------------|
F#|---------------------------|----------------------------------|
B |-0---0-0-0-----------------|----------------------------------|

[Outro]
    Q=100
(Gtr 1)
    W          +W           W          +W
C#|-0--------|-(0)--------|-0--------|-(0)----|
G#|-3--------|-(3)--------|-3--------|-(3)----|
E |-2--------|-(2)--------|-2--------|-(2)----|
B |-0--------|-(0)--------|-0--------|-(0)----|
F#|-0--------|-(0)--------|-0--------|-(0)----|
B |-0--------|-(0)--------|-0--------|-(0)----|

   15/16
    W          +W           W          +H.
C#|-0--------|-(0)--------|-0--------|-(0)----|
G#|-3--------|-(3)--------|-3--------|-(3)----|
E |-2--------|-(2)--------|-2--------|-(2)----|
B |-0--------|-(0)--------|-0--------|-(0)----|
F#|-0--------|-(0)--------|-0--------|-(0)----|
B |-0--------|-(0)--------|-0--------|-(0)----|

  Q=160
 4/4
(Gtr 1, 2)
  PM----------|
  S S S S S S S S H                W
C#|--------------------|------------------|
G#|--------------------|------------------|
E |--------------------|------------------|
B |--------------------|------------------|
F#|-0-0-0-0---0-0------|------------------|
B |-0-0-0-0---0-0------|------------------|

    PM-----------------------------------
    S S S S S S S S S S S S S S S S   W
C#|---------------------------------|---|
G#|---------------------------------|---|
E |---------------------------------|---|
B |---------------------------------|---|
F#|-0-0-0-0---0-0---0-0-0-0---0-0---|---|
B |-0-0-0-0---0-0---0-0-0-0---0-0---|---|

 ---------------------------------------------|
  S S S S S E. S S E S S S S   S E. S S E S S Q.
C#|----------------------------|-------------------|
G#|----------------------------|-------------------|
E |----------------------------|-------------------|
B |----------------------------|-------------------|
F#|-0-0-0-0-0----0-0---0-0-0-0-|-0----0-0---0-0----|
B |-0-0-0-0-0----0-0---0-0-0-0-|-0----0-0---0-0----|

    PM------------------------------------------
    S S S S S S S S S S S S S S S S   W
C#|---------------------------------|----------|
G#|---------------------------------|----------|
E |---------------------------------|----------|
B |---------------------------------|----------|
F#|-0-0-0-0---0-0---0-0-0-0---0-0---|----------|
B |-0-0-0-0---0-0---0-0-0-0---0-0---|----------|

                               \7
 --------------------------|
  S S S S S E. S S E S S S S   W
C#|----------------------------|-------|
G#|----------------------------|-------|
E |----------------------------|-------|
B |----------------------------|-------|
F#|-0-0-0-0-0----0-0---0-0-0-0-|-------|
B |-0-0-0-0-0----0-0---0-0-0-0-|-0-----|

    Q=120
    PM------------------------------------------
    S S S S S S S S S S S S S S S S   W
C#|---------------------------------|----------|
G#|---------------------------------|----------|
E |---------------------------------|----------|
B |---------------------------------|----------|
F#|-0-0-0-0---0-0---0-0-0-0---0-0---|----------|
B |-0-0-0-0---0-0---0-0-0-0---0-0---|----------|

 ---------------------------------------------|
  S S S S S E. S S E S S S S   S E. S S E S S Q.
C#|----------------------------|---------------------|
G#|----------------------------|---------------------|
E |----------------------------|---------------------|
B |----------------------------|---------------------|
F#|-0-0-0-0-0----0-0---0-0-0-0-|-0----0-0---0-0------|
B |-0-0-0-0-0----0-0---0-0-0-0-|-0----0-0---0-0------|

    PM------------------------------------------
    S S S S S S S S S S S S S S S S   W
C#|---------------------------------|----------|
G#|---------------------------------|----------|
E |---------------------------------|----------|
B |---------------------------------|----------|
F#|-0-0-0-0---0-0---0-0-0-0---0-0---|----------|
B |-0-0-0-0---0-0---0-0-0-0---0-0---|----------|

 -------------------------------------------------|
  S S S S S E. S S E S S S S   S E. S S E S S E S S
C#|----------------------------|----------------------|
G#|----------------------------|----------------------|
E |----------------------------|----------------------|
B |----------------------------|----------------------|
F#|-0-0-0-0-0----0-0---0-0-0-0-|-0----0-0---0-0---0-0-|
B |-0-0-0-0-0----0-0---0-0-0-0-|-0----0-0---0-0---0-0-|



************************************

| h    Hammer-on
| p    Pull-off
| (n)  Ghost note
| PM   Palm mute
| ~    Vibrato
| [n]  Artificial harmonic (Pinch harmonic)
|      
| #    
| ==   
| E E E E E E E E E E E   E E E E E E  E  E  E  E  E  E 
| E E E E E E E E E E E   E E E E E E  H 
| E E E E E E E E E E E   E E E E E E E E E  Q 
| E E E E E E E E E E E   E E E E E E E E E E E E 
| PM   
| PM  PM      PM 
| S E S E S S S E S E S S         W 
| S E S E S S S E S E S S   S S S S S S S S S S S S S S S S 
| S E S E S S S E S E S S   W 
| S S E E E E E E   E S S E E E E E E 
| S S E E E E E E   E S S E E S S S S S S S S 
| S S S S S E. S S E S S S S   S E. S S E S S E S S 
| S S S S S E. S S E S S S S   S E. S S E S S Q. 
| S S S S S E. S S E S S S S   W 
| S S S S S S S S H                W 
| h=   
| o    
| p=   

************************************
Suggest correction
comments
print report bad tab
10 comments total. Showing first comments.
+2 reply
alex z 291 Jul 31, 2007 11:33 PM

gunnest tab u rule hi 5

+1 reply
jeremytabs 30 Sep 10, 2007 10:36 PM

awesome :)

0 reply
mrbraz 220 Mar 26, 2008 02:06 PM

Are you sure bout that??
/ \
|---------------------------|-|-------------|------------------|
|---------------------------|-|-------------|------------------|
|---------------------------|-5p0h5p0h5p0h5p0h4p0h4p0h4p0h4p0--|
|-----------3p0h3p0h3p0h3p0-|----------------------------------|
|---------------------------|----------------------------------|
|-0---0-0-0-----------------|----------------------------------|


I think this is way better...
|----------------------------|
|----------------------------|
|5p2h5p2h5p2h5p2h4p0h4p0h4p0-|
|----------------------------|
|----------------------------|
|----------------------------|

Anyway,great tab dude!!5*

guest
You may want to rate the tab now too:
select rating
Wanna post a correction for this tab? Suggest correction