Oops, an error
Loading. Please wait.

A Cold Day In Hell Guitar Pro

version 2
version 2

Whole song

Interactive

28,572 views 9 this week
3 commentsread comments
1 2 3 4 5
x 15
add to favorites
guitar tuner
Autoscroll
slow
fast
+/-
esc
set tempo
stop
Help us to improve Ultimate-Guitar.com Take our survey!
×
Author
Filesize
Instruments
87 Kb
rhythm guitar, lead guitar #1, lead guitar #2, bass, percussion
"A Cold Day In Hell"
demo version
Play now

or get full version for Free

×
Get full version now!
To learn and play this song
in Tab Pro, start free trial
Start free trial

or get $10 off Welcome Bonus

Get welcome bonus
Get access to Tab Pro version of “A Cold Day In Hell”!
Tab Pro is a premium guitar tab service, available on PC, Mac, iOS and Android
START FREE TRIAL
Your download will start in 7 seconds
×
Like this song? We have more like this. Follow us on Facebook for more great tabs and guitar-related content
To download “A Cold Day In Hell” Guitar Pro tab click button below
Please note that you must have Guitar Pro software installed on your
computer in order to view this file.
Suggest correction
comments
report bad tab
3 comments total.
0 reply
panzerputney 52 Oct 12, 2008 06:23 AM

all good all good

0 reply
Black Hazard 10 May 17, 2011 09:54 PM

hey how come you didnt do the harmony for the hammer on/pull off thing in the intro? surely you must hear it. can you please correct the tab and add it in?

0 reply
dziki95 10 Feb 04, 2014 04:08 PM

harmony in the intro; starts at 17th bar

|----------------------------------------------------|
|-----------------------------------------------3h---|
|--------6-----4-----6--------------------4h-6-------|
|--7-----------------------7-----------4-------------|
|----------------------------------------------------|
|----------------------------------------------------|


|----------------------------------------------------|
|--5h-3-----------------3h-5h-3----------------------|
|--------6h-4-----4h-6-----------6h-4----------------|
|--------------4-----------------------6-------------|
|----------------------------------------------------|
|----------------------------------------------------|


|----------------------------------------------------|
|-----------------------------------------------3h---|
|--------6-----4-----6--------------------4h-6-------|
|--7-----------------------7-----------4-------------|
|----------------------------------------------------|
|----------------------------------------------------|


|--------------------------4-----------2-------------|
|--5h-3-----------------3----------------------------|
|--------6h-4-----4h-6-------------------------------|
|--------------4-------------------------------------|
|----------------------------------------------------|
|----------------------------------------------------|

guest
You may want to rate the tab now too:
select rating