Oops, an error
Loading. Please wait.

A Deathless Song bass

version 1
version 1

Whole song

Interactive

682 views 9 this week
no commentswrite comment
1 2 3 4 5
2 more votes to show rating
add to favorites
×
Save as Personal and add changes to this tab that will be seen only by you. Learn more ›
×
You can save this tab as Personal to edit and correct it or add notes. All changes will be seen only by you. Learn more »
launch autoscroll
font size
0
reset
guitar tuner
edit
Autoscroll
slow
fast
+/-
esc
set tempo
stop
-------------------------------------------------------------------------------
                         A Deathless Song  - Parkway Drive
-------------------------------------------------------------------------------
here is the bass tab to my cover of Parkway Drive's A deathless song to which here is the link
https://www.youtube.com/watch?v=iO7-vjN0g7I


Tabbed by: Mark Flintoft
E-mail: markflintoft@optusnet.com.au

Tuning:B F B E

E|---------------------------------------------------------------------------|
B|--------------------------------------------------------------3------------|
F|---------------------------------------------------------------------------|
B|------7-6-4------------------------7-6-4-------------------7---------------|

E|---------------9-7-------7-------------------------------------------------|   -
B|-----7--7-9-10------10-9--10---9-7-10-9--7---------------------------------|    |
F|------10-----------------------------------10------------------------------|    | 
B|---------------------------------------------------------------------------|    |
                                                                                  | X4
E|---------------9-7-------7-12----------------------------------------------|    |
B|-----7--7-9-10------10-9-------7--10-9--7----------------------------------|    |
F|------10------------------------10---------10------------------------------|    |
B|---------------------------------------------------------------------------|   -

E|---------------------------------------------------------------------------|
B|---------------------------------------------------------------------------|
F|---------------------------------------------------------------------------|  X2
B|-----4-6-7-6-4-0-2-4-2-4-6---4-6-7-6-4-0-2-4-2-4-6-------------------------|

E|---------------------------------------------------------------------------|
B|--------------3--3-3-3-3--5--5-5-5-5---------------------------------------|
F|---------------------------------------------------------------------------|  X2
B|----4-6-7-6-4--------------------------4-6-7-6-4-0-2-4-2-4-6---------------|

E|---------------------------------------------------------------------------|
B|----3--3-3-3-3--5--5-5-5-5------------------------3--3-3-3-3--5--5-5-5-5--7|
F|---------------------------------------------------------------------------|
B|---------------------------4--4-4-4-4--5--5-5-5-5--------------------------|

E|---------------------------------------------------------------------------|
B|----7--7-7-7-7--9--9-9-9-9--10--10-10-10-10--9--9-9-9-9--------------------|
F|---------------------------------------------------------------------------|
B|---------------------------------------------------------------------------|

E|---------------------------------------------------------------------------|
B|----7--7-7-7-7--5--5-5-5-5--3--3-3-3-3--5--5-5-5-5-------------------------|
F|---------------------------------------------------------------------------|
B|---------------------------------------------------------------------------|

E|---------------------------------------------------------------------------|
B|---10-9-7----7--7-10-10-10-10h9----7-9-10-9-7----7--7-10-10-10-9-7---------|
F|----------10----------------------------------10-------------------10------|
B|---------------------------------------------------------------------------|

E|---------------9-7-------7-------------------------------------------------|   -
B|-----7--7-9-10------10-9--10---9-7-10-9--7---------------------------------|    |
F|------10-----------------------------------10------------------------------|    | 
B|---------------------------------------------------------------------------|    |
                                                                                  | X2
E|---------------9-7-------7-12----------------------------------------------|    |
B|-----7--7-9-10------10-9-------7--10-9--7----------------------------------|    |
F|------10------------------------10---------10------------------------------|    |
B|---------------------------------------------------------------------------|   -

E|---------------------------------------------------------------------------|
B|---------------------------------------------------------------------------|
F|---------------------------------------------------------------------------|  X2
B|-----4-6-7-6-4-0-2-4-2-4-6---4-6-7-6-4-0-2-4-2-4-6-------------------------|

E|---------------------------------------------------------------------------|
B|--------------3--3-3-3-3--5--5-5-5-5---------------------------------------|
F|---------------------------------------------------------------------------|  X2
B|----4-6-7-6-4--------------------------4-6-7-6-4-0-2-4-2-4-6---------------|

E|---------------------------------------------------------------------------|
B|----3--3-3-3-3--5--5-5-5-5------------------------3--3-3-3-3--5--5-5-5-5--7|
F|---------------------------------------------------------------------------|
B|---------------------------4--4-4-4-4--5--5-5-5-5--------------------------|

E|---------------------------------------------------------------------------|
B|----7--7-7-7-7--9--9-9-9-9--10--10-10-10-10--9--9-9-9-9--------------------|
F|---------------------------------------------------------------------------|
B|---------------------------------------------------------------------------|

E|---------------------------------------------------------------------------|
B|----7--7-7-7-7--5--5-5-5-5--3--3-3-3-3--5--5-5-5-5-------------------------|
F|---------------------------------------------------------------------------|
B|---------------------------------------------------------------------------|

E|---------------------------------------------------------------------------|
B|---10-9-7----7--7-10-10-10-10h9----7-9-10-9-7----7--7-10-10-10-9-7---------|
F|----------10----------------------------------10-------------------10------|
B|---------------------------------------------------------------------------|

E|---------------9-7-------7-------------------------------------------------|   
B|-----7--7-9-10------10-9--10---9-7-10-9--7---------------------------------|   
F|------10-----------------------------------10------------------------------|    
B|---------------------------------------------------------------------------|   
                                                                                 
E|---------------9-7-------7-12----------------------------------------------|   
B|-----7--7-9-10------10-9-------7--10-9--7----------------------------------|   
F|------10------------------------10---------10------------------------------|   
B|---------------------------------------------------------------------------|   

E|---------------9-7-------7-------------------------------------------------|   
B|-----7--7-9-10------10-9--10---9-7-10-9--7---------------------------------|   
F|------10-----------------------------------10------------------------------|    
B|---------------------------------------------------------------------------|   
                                                                                 
E|---------------9-7-------7-12----------------------------------------------|   
B|-----7--7-9-10------10-9-------7--10-9--7-----7---------------------------|   
F|------10------------------------10---------10------------------------------|   
B|---------------------------------------------------------------------------|   

E|-----17-16-14--------------------------------------------------------------|
B|--------------17-14-------12-14-15-17-15-14\12-----------------------------|
F|---------------------------------------------------------------------------|
B|---------------------------------------------------------------------------|

E|---------------------------------------------------------------------------|
B|-----14--14-14-14-14--12--12-12-12-12--10--10-10-10-10--12--12-12-12-12----|
F|---------------------------------------------------------------------------|
B|---------------------------------------------------------------------------|

E|---------------------------------------------------------------------------|
B|-----14--14-14-14-14--12--12-12-12-12--10--10-10-10-10--9--9-9-9-9---------|
F|---------------------------------------------------------------------------|
B|---------------------------------------------------------------------------|

E|---------------------------------------------------------------------------|
B|-----10--10-10-10-10--12--12-12-12-12--14--14-14-14-14--15--15-15-15-15----|
F|---------------------------------------------------------------------------|
B|---------------------------------------------------------------------------|

E|---------------------------------------------------------------------------|
B|-----14--14-14-14-14--12--12-12-12-12--10--10-10-10-10--9--9-9-9-9---------|
F|---------------------------------------------------------------------------|
B|---------------------------------------------------------------------------|

E|---------------------------------------------------------------------------|
B|-----10--10-10-10-10--9--9-9-9-9--7--7-7-7-7--5--5-5-5-5-3-----------------|
F|---------------------------------------------------------------------------|
B|---------------------------------------------------------------------------|

E|---------------------------------------------------------------------------|
B|-----3--3-3-3-3--5--5-5-5-5--7--7-7-7-7--7--7-7-7-7------------------------|
F|---------------------------------------------------------------------------|
B|---------------------------------------------------------------------------|

E|---------------------------------------------------------------------------|
B|-----7--7-7-7-7--5--5-5-5-5--3--3-3-3-3--5--5-5-5-5------------------------|
F|---------------------------------------------------------------------------|
B|---------------------------------------------------------------------------|

E|---------------------------------------------------------------------------|
B|-----7--7-7-7-7--9--9-9-9-9--10--10-10-10-10--12--12-12-12-12--------------|
F|---------------------------------------------------------------------------|
B|---------------------------------------------------------------------------|

E|----/9-7-----------9-7------------9-7--------------------------------------|
B|---------10-9-10-7-----10-10-9--7-----10-9-10-7-10-10-10-9-----------------|
F|----------------------------------------------------------10-10-10/12------|
B|---------------------------------------------------------------------------|

E|---------------9-7-------7-------------------------------------------------|   -
B|-----7--7-9-10------10-9--10---9-7-10-9--7---------------------------------|    |
F|------10-----------------------------------10------------------------------|    | 
B|---------------------------------------------------------------------------|    |
                                                                                  | X4
E|---------------9-7-------7-12----------------------------------------------|    |
B|-----7--7-9-10------10-9-------7--10-9--7----------------------------------|    |
F|------10------------------------10---------10------------------------------|    |
B|---------------------------------------------------------------------------|   -

E|---------------------------------------------------------------------------|
B|-----7--7-7-7-7--9--9-9-9-9--10--10-10-10-10--12--12-12-12-12--------------|
F|---------------------------------------------------------------------------|
B|---------------------------------------------------------------------------|

E|---------------------------------------------------------------------------|
B|-----14--14-14-14-14--15--15-15-15-15--14--14-14-14-14--12--12-12-12-12----|
F|---------------------------------------------------------------------------|
B|---------------------------------------------------------------------------|

E|-14h16-17-16-14-12/14--14-17-17-17-17h16--14h16-17-14-12/14-17-17-17-16-14-|
B|---------------------------------------------------------------------------|
F|---------------------------------------------------------------------------|
B|---------------------------------------------------------------------------|

E|-12-12h14------------------------------------------------------------------|
B|---------------------------------------------------------------------------|
F|---------------------------------------------------------------------------|
B|---------------------------------------------------------------------------|

| /  slide up
| \  slide down
| h  hammer-on
| p  pull-off
| ~  vibrato
| +  harmonic
| x  Mute note
===============================================================================
Suggest correction
Creating personal tab
Creating personal tab
You can edit any tab online and save it as your Personal.

You can edit, replace or remove any tab part or add personal notes – all changes will be seen only by you.

Personal tabs can be accessed anytime from any device, even offline.
Learn more »
Give kudos to tab author, rate the tab!
1 2 3 4 5
comments
print report bad tab
guest
You may want to rate the tab now too:
select rating
Wanna post a correction for this tab? Suggest correction