Oops, an error
Loading. Please wait.

Blackout Tab

version 1
version 1

Whole song

Interactive

18,957 views 3 this week
7 commentsread comments
1 2 3 4 5
accurate
x 6
add to favorites
launch autoscroll
font size
0
reset
how to read this tab
guitar tuner
Tab Pro tools
  • play this tab
  • loop segment
  • change instrument
  • show fretboard
  • metronome
Autoscroll
slow
fast
+/-
esc
set tempo
stop
iNTRO
C#:-------------------------------------------------------------------------------|
G#: ------------------------------------------------------------------------------|
F : ------------------------------------------------------------------------------|
B : ----------5-------------------5-------------------5---------------------------|
F#:-00-0-0h5h8-7-5h7p5p0-3~--0h5h8-7-5h7p5p0-1~--0h5h8-7-5h7p5p0-3~--5h7p5p0-5~---|
B :-00-0--------------------------------------------------------------------------|
Pm  ..

vERSE
C#:-----------------------------------------|
G#: ----------------------------------------|
F : ----------------------------------------|
B : --------------------------------repeat--|
F#:-000-000-0h5/7h8h10p7p0-000-000----------|
B :-000-000----------------000-000----------|
Pm  ... ...                ... ...

vERSE
C#:--------------------------------------------------------------------------------------------------------|
G#: -------------------------------------------------------------------------------------------------------|
F : -------------------------------------------------------------------------------------------------------|
B : --7----5------7------------7----5-----10-10--10-10---7----5-----7------------7----5--------------------|
F#: -----8---5~--8-8-7-8-10-8-----8---5~--10-10--8--8-------8---5~-8-8-7-8-10-8-----8---5-7-8-10-8-7-5~----|
B : ---00-0-0-------------------00-0-0----10-10-----------00-0-0------------------00-0-0-------------------|
Pm     .. . .                   .. . .                    .. . .                  .. . .

pRE bREAKDOWN
C#:-------------|
G#: ------------|
F : ------------|
B : ------------|
F#:-000-000-----|
B :-000-000-----|
Pm  ... ...

bREAKDOWN
C#:-------------------------------------------------------------------------------------------------|
G#: ------------------------------------------------9----9------9-----------------------------------|
F : ------------------------------------------------12---12-----12----------------------------------|
B : ---------------------------------------------------------------------------------2-3-5-3-2------|
F#: -000-000-00000-000-1--000-00000-000-000-1--00000--000--00000--000-1--00000-000-3-----------5~---|
B : -000-000-00000-000-1--000-00000-000-000-1--00000--000--00000--000-1--00000-000------------------|
Pm   ... ... ..... ...    ... ..... ... ...    .....  ...  .....  ...    ..... ...


bREAKDOWN
C#:---------------------------------------------------------------------------------------------------|
G#: --------------------------------------------------------------------------------------------------|
F : --------------------------------------------------------------------------------------------------|
B : -------------------1-------------------------1----------------------------1--------2-3-5-3-2------|
F#: -00-0-00-0-00-0--1-1--3-4--00-0-00-0-00-0--1-1--3-4--0000-0-00-0-0000-0-1-1--3-4--3-----------5~--|
B : -00-0-00-0-00-0--1----3-4--00-0-00-0-00-0--1----3-4--0000-0-00-0-0000-0-1----3-4------------------|
Pm   ..   ..   ..              ..   ..   ..              ....   ..   ....

vERSE
C#:--------------------------------------------------------------------------------------------------------|
G#: -------------------------------------------------------------------------------------------------------|
F : -------------------------------------------------------------------------------------------------------|
B : --7----5------7------------7----5-----10-10--10-10---7----5-----7------------7----5--------------------|
F#: -----8---5~--8-8-7-8-10-8-----8---5~--10-10--8--8-------8---5~-8-8-7-8-10-8-----8---5-7-8-10-8-7-5~----|
B : ---00-0-0-------------------00-0-0----10-10-----------00-0-0------------------00-0-0-------------------|
Pm     .. . .                   .. . .                    .. . .                  .. . .

dRUM sOLO (wITH lEAD gUITAR oVER pALM mUTING)
C#:-----------------------------------------------------------------------------------------------------|
G#: ----------------------------------------------------------------------------------------------------|
F : ----------------------------------------------------------------------------------------------------|
B : -0~------0~-----------------------------------------------------------------------------------------|
F#: -0~------0~---------------0000000000--0000---0000000000--0000---0000000000--0000---0000000000--0000-|
B : -0~------0~--pickslide//--0000000000--0000---0000000000--0000---0000000000--0000---0000000000--0000-|
Pm                            ..........  ....   ..........  ....   ..........  ....   
 ....


lAST bREAKDOWN
C#:-------------------------|
G#: ------------------------|
F : ------------------------|
B : ------------------------|
F#:-0-00-0-00-0-00---00-00--|
B :-0-00-0-00-0-00---00-00--|
Pm    ..   ..   ..   .. ..
comments
print report bad tab
7 comments total. Showing first comments.
0 reply
xproxxx wrote on May 26 2006, 09:17 pm

good

0 reply
xproxxx wrote on May 26 2006, 09:17 pm

good

0 reply
leavethatmonkey wrote on July 17 2006, 07:53 pm

good start! some parts missing but still accurate in the other parts :]

I want to post or [tab]
guest
You may want to rate the tab now too:
select rating
Please do not post tabs as comments. Select "correction" instead!