Oops, an error
Loading. Please wait.

Carrion Bass Tab

version 3
version 3

Whole song

Interactive

483 views 3 this week
no commentswrite comment
1 2 3 4 5
please rate
add to favorites
launch autoscroll
font size
0
reset
guitar tuner
Autoscroll
slow
fast
+/-
esc
set tempo
stop
Help us to improve Ultimate-Guitar.com Take our survey!
×
Contributor
Difficulty
Tuning
intermediate
B F# B E G# C#
PARKWAY DRIVE
CARRION
HORIZONS
BASS TAB
DROP B

CHORUS 2X
E |--------------------------------|
B |--------------------------------|
F#|--------------------------------|
B |-3~-----0--------7~-----5-------|

VERS BEGINNING 1X
E |--------------------------------|
B |--------------------------------|
F#|--------------------------------|
B |-0----0----0--------------------|

VERS 3X
E |-----------------------------------|
B |-----------------------------------|
F#|-8-----7---8-5-----8---5------7----|
B |---0-0---0-----0-0---0---0-10---10-|

VERS VARIATION 4X
E |-----------------------------------|
B |-----------------------------------|
F#|-----------------------------------|
B |-3-0-0-3-0-3-0--------0-000-3------|

VERS 4X
E |-----------------------------------|
B |-----------------------------------|
F#|-8-----7---8-5-----8---5------7----|
B |---0-0---0-----0-0---0---0-10---10-|

CHORUS 2X
E |--------------------------------|
B |--------------------------------|
F#|--------------------------------|
B |-3~-----0--------7~-----5-------|

VERS VARIATION 4X
E |-----------------------------------|
B |-----------------------------------|
F#|-----------------------------------|
B |-3-0-0-3-0-3-0--------0-000-3------|

BRIDGE [REST HERE; ONLY GUITAR]
E |---------------------------------|
B |---------------------------------|
F#|---------------------------------|
B |---------------------------------|

FILL [PLAY THIS WHEN DRUMS COME IN]
E |---------------------------------|
B |---------------------------------|
F#|---------------------------------|
B |-5-5-5-5-3-3-3-3-2-2-2-2-0-0-0-0-|

BRIDGE PART A 2X[FOLLOW THE BASSDRUM HERE]
E |----------------------------------------|
B |----------------------------------------|
F#|----------------------------------------|
B |-3----3-3--0----0-0--7----7-7--5-5-5-55-|

BRIDGE PART B 2X
E |---------------------------------------|
B |---------------------------------------|
F#|---------------------------------------|
B |-3~--------0---------7~--------5-------|

BRIDGE PART C
E |---------------------------------|
B |---------------------------------|
F#|---------------------------------|
B |-7-0-0-0-0-0-0-0-5-0-0-0-0-0-0-0-|

E |----------------------------------|
B |----------------------------------|
F#|----------------------------------|
B |-10-0-0-0-0-0-0-0-3-0-0-0-0-0-0-0-|

E |---------------------------------|
B |---------------------------------|
F#|---------------------------------|
B |-7-0-0-0-0-0-0-0-5-0-0-0-0-0-0-0-|

E |----------------------------------------|
B |----------------------------------------|
F#|----------------------------------------|
B |-10-0-0-0-0-0-0-0-3-3--5--3--2--2--2--2-|

E |---------------------------------|
B |---------------------------------|
F#|---------------------------------|
B |-7~--------------5~--------------|

E |----------------------------------|
B |----------------------------------|
F#|----------------------------------|
B |-10~--------------3~--------------|

E |---------------------------------|
B |---------------------------------|
F#|---------------------------------|
B |-7~--------------5~--------------|

E |----------------------------------------|
B |----------------------------------------|
F#|----------------------------------------|
B |-10~--------------3-3--5--3--2--2--2--2-|

FINAL CHORUS 
E |--------------------------------|
B |--------------------------------|
F#|--------------------------------|
B |-----------------7~-----5-------|

E |--------------------------------|
B |--------------------------------|
F#|--------------------------------|
B |-3~-----0--------7~-----5-------|

OUTRO [REPEAT UNTIL FADE OUT]
E |---------------------------------|
B |---------------------------------|
F#|---3-3-5---5-5-7---7-7-9---5-5-7-|
B |-3-------5-------7-------5-------|

Please rate, and write in the comments when you find an error :)
comments
We did not receive enough feedback on this tab! Please rate:
print report bad tab
1 2 3 4 5
I want to post or [tab]
guest
You may want to rate the tab now too:
select rating
Please do not post tabs as comments. Select "correction" instead!